Loading...
Slade logo

Kill Em At The Hot Club Tonight Slade

  • 2
  • Share
  • Transposing
    0
  • Font Size
Intro:
E A
E -------------------------------------------------------------------------
B ---------12----------------12------------10-10-10------10-10-------------
G ---11s13----13s9---9-11s13----13s9--9h11----------9h11-------11s16-15-14-
D -------------------------------------------------------------------------
A -------------------------------------------------------------------------
E -------------------------------------------------------------------------

D G B7
E -------------------------------------------------------------------------
B -------10---------------10------------8-8-----------------------7-10-9-7--
G ---9s11----11s7---7-9s11----11s7--7h9------------------7-9-8-7s8----------
D ----------------------------------------------7-8-9-10--------------------
A -------------------------------------------10-----------------------------
E -------------------------------------------------------------------------
-
E A
E
B -------12-----------14----14----------10-10-10-------10------------------------
G -11s13---13s9--11s13---13-13-13---9h11----------9h11----11s-16-15-14-- 16-14-
D -------------------------------------------------------------------------------
A -------------------------------------------------------------------------------
E -------------------------------------------------------------------------------
D G B7
E -----------------------------------------------------------------------
B -------10---------------10------------8-8----------------------7-10-9-7
G ---9s11----11s7---7-9s11----11s7--7h9-----------------7-9-8-7s8--------
D ---------------------------------------------7-8-9-10------------------
A -------------------------------------------10--------------------------
E -----------------------------------------------------------------------

Em B7 Em B7
E -7-------------------------7------------------------
B ------8--7-----7-10-9-7---------8--7-----7-10-9-7---
G ---9-------9s8---------------9-------9s8------------
D ----------------------------------------------------
A ----------------------------------------------------
E ----------------------------------------------------

G E7 A D G G F#7 F7
E 3-3---------3-s-10-9-8-7--12-11-10---------------------
B 3-3-----3h5------------------------12p10-8---8--7--6s--
G ----3h4------------------------------------------------
D -------------------------------------------------------
A -------------------------------------------------------
E -------------------------------------------------------

E
You'll get over me, I'll get over you
A
The only time to meet is when we really fancy
D
We talk quite a lot, we sleep on and off
G B7
The last thing I remember was the TV dancing
E
You walk on the right, I walk on the left
A
The only thing to say will be a hello maybe
D
We had lots of fun, we wrote in the sand
G B7
You keep on throwing things at me and I believe baby
Chorus
Em B7
You can smile like you did before
Em B7
Keep your souvenirs upon your bedroom wall
G E7
Everyone gets silly, hot blood can't get chilly
A D G G F# F
We'll kill 'em at the hot club tonite

E
You'll get over me, I'll get over you
A
The only time we'll meet is when we really fancy
D
A ride in my car, pick up my guitar
G B7
You think that saying sorry is the only answer
E
You walk on the right, I walk on the left
A
You look the other way in case I see you blushing
D
We fell down the stairs, went head over heels
G B7
The state that we were in how come you had me rushin'

Chorus
You can smile like you did before
Keep your souvenirs upon your bedroom wall
Everyone gets silly, hot blood can't get chilly
We'll kill 'em at the hot club tonite

Violin solo

Chorus
You can smile like you did before
Keep your souvenirs upon your bedroom wall
Everyone gets silly, hot blood can't get chilly
A D G E7
We'll kill 'em at the hot club tonite
A D G E7
We'll kill 'em at the hot club tonite
A D G F#7 G7
We'll kill 'em at the hot club tonite

Log In to leave a comment

After registration we will return you to the same place
Comments
face-with-monocle
If you wait a bit, some comments may appear here...

Shhh...