Loading...
Sinatra Nancy logo

Kill Bill Sinatra Nancy

  • 0
  • Share
  • Transposing
    0
  • Font Size
Intro:
E--------------------------|
B-0------0-----------------|
G------0---2---0-----------|
D----2---------------------|
A--------------------------|
E--------------------------|

E--------------------------|
B----1-----1--0------------|
G---2----2------2----------|
D--2---2-------------------|
A-0------------------------|
E--------------------------|

E-------------------------------0----|
B-----------------------------0------|
G---4----5-4-2-0------------0--------|
D--4--4----------4--------2----------|
A-2----2----------------2------------|
E---------------------0--------------|

Am
I was five and he was six
Em
We rode on horse's made of sticks
Am
He wore black and I wore white
Em
He would always win the fight ( Em)

Am
Bang Bang (2/1,0) he shot me down
Em
Bang Bang (2/1,0) I hit the ground
Am
Bang Bang (3,1,2) that awful sound
Em
Bang Bang (1,0,Em)my baby shot me down (solo)

A
Seasons came and changed the time
A Am
When I grew up I called him mine
Am
He would always laugh and say(3,2,1)
Em
Remember when we used to play

Am
Bang Bang (2/1,0) I shot you down
Em
Bang Bang (2/1,0) you hit the ground
Am
Bang Bang (3,1,2) that awful sound
Em
Bang Bang (1,0, Em) I used to shoot you down (solo)

Em Am Em D Em Am }x3

A
Now he's gone I don't know why
A Am
Until this day sometimes I cry
B
He didn't even say goodbye
A
He didn't take the time to lie

Am
Bang Bang (2/1,0)he shot me down
Em
Bang Bang (2/1,0)I hit the ground
Am
Bang Bang (2,0,1)that awful sound
Em
Bang Bang (1,0,Em)my baby shot me down (solo)

Log In to leave a comment

After registration we will return you to the same place
Comments
face-with-monocle
If you wait a bit, some comments may appear here...

Shhh...

Most Popular