Loading...
Simple Plan logo

God Must Hate Me Simple Plan

  • 0
  • Share
  • Transposing
    0
  • Font Size
Ok this is my frist tab.
Ive been playing guitar for about 4 months know. so here it goes

Intro:the whole songs in muted power chords
E--------------------
B--------------------
G--2---4-------5-5-5-
D--2-2-4-2-----5-5-5-
A----2---2-5-5-------
E----------5-5-------

Verses
E--------------------
B--------------------
G-2-2-2-2-2----------
D-2-2-2-2-2-2-2-2-2-2 till u get to bridge
A-----------2-2-2-2-2
E--------------------

Bridge
E-----------------------------------------------------
B-----------------------------------------------------
G2-2-2-2-2--------------------------------------------
D2-2-2-2-2-2-2-2-2-2-4-4-4-4-4x2-------------2-2-2-2-2
A----------2-2-2-2-2-4-4-4-4-4x2-5-5-5-5-5x2-2-2-2-2-2
E--------------------------------5-5-5-5-5x2----------

Chorus is the same thing as the intro
Any questions e-mail me at [email protected]

Log In to leave a comment

After registration we will return you to the same place
Comments
face-with-monocle
If you wait a bit, some comments may appear here...

Shhh...

Versions

Most Popular
You Might Like