Sick Of It All logo

Disco Sucks Fuck Everything Sick Of It All

  • 0
  • Share
  • Font Size
Sick Of It All – Disco Sucks Fuck Everything
-------------------------------------------------------------------------------
DISCO SUCKS FUCK EVERYTHING - Sick Of It All
-------------------------------------------------------------------------------

Tabbed by Sadel Sparr
Email: [email protected]
ICQ: 10102197

RIFF 1 x4
G|-----------------------------------------------------------|
D|-----------------------------------------------------------|
A|--4-5-5-5-5-5-5-5-4-5-5-5-5-5-5-5-4-5-5-5-5-5-5-5----------|
E|--------------------------------------------------4--3--1--|

RIFF 2 x2
G|-------------------------------------------------------------------------|
D|-------------------------------------------------------------------------|
A|------------------------4-5-5-5-x-5-4-5-5-5-x-5-4-5-5-5-x-5-4-5-5-5-x-5--|
E|--1--1--1----1--1--1-----------------------------------------------------|

FILL AT 00:38
G|----------------------|
D|----------------------|
A|----------------------|
E|--1--1--1----1--1--1--|

SHORT PAUS...

RIFF 1 x4
G|-----------------------------------------------------------|
D|-----------------------------------------------------------|
A|--4-5-5-5-5-5-5-5-4-5-5-5-5-5-5-5-4-5-5-5-5-5-5-5----------|
E|--------------------------------------------------4--3--1--|

RIFF 3 x3
G|--------------------|
D|-------2---------3--|
A|--------------------|
E|--0--0------1--1----|

Play as many as you wish of the high E:s and let the low one ring for a while
G|-----------------------------------------|
D|--2-2-2-2-2-2-2-2-2-2-2-2-2-2-2-2--------|
A|-----------------------------------------|
E|----------------------------------0%%%%--|

01:34
Let this baby ring too
G|------|
D|--0%--|
A|------|
E|------|

RIFF 4 x4
G|-------------------------------------------------------------------|
D|-------------------------------------------------------------------|
A|--4-5-5-5-5-5-5-5-4-5-5-5-5-5-5-5-4-5-5-5-5-5-5-5-4-5-5-5----------|
E|----------------------------------------------------------1-1-1-1--|

The final tone, let it ring til fade
G|------|
D|--0%--|
A|------|
E|------|

-------------------------------------------------------------------------------

Log In to leave a comment

After registration we will return you to the same place
Comments
face-with-monocle
If you wait a bit, some comments may appear here...

Shhh...

Most Popular
You Might Like