Siakol logo

Peksman Siakol

  • 16
  • Share
  • Transposing
    0
  • Font Size
Siakol – Peksman
Song:peksman
Artist:siakol
Posted by:leander m.
Tune standard E B G D A E

E|------3-------------2--------------5-0---------2---5-2------
B|----0---0---------3---3----------1-----1---------3-----3----
G|----------0-----4-------0------2-------------2-----------2--
D|--------------4--------------2-----------2-0----------------
A|------------2--------------0--------------------------------
E|--3---------------------------------------------------------

----------3---------------2---------|
------0-----0---------3-----3-------|
----0---0-----0---------4-----4-----|
----------------0---4------------4--|
------------------2-----------------|
--3---------------------------------|

E|----------5----------------5--------|
B|------------5----------7-----7------|
G|--------5-----5----------7-----7----|
D|------7--------------7-----------7--|
A|----7------------7-5----------------|
E|--5---------------------------------|

Dahil ayo-kong malayo sa iyo(follow the verse strumming)
---------------------------------------------------------------|
---------------------------------------------------------------|
--5---7--9--9-----7-----4-----7--5--7--5--7-----9-----7--------|
--5---7--9--9--7--7--5--4--7--7--5--7--5--7--9--9--7--7--5--5--|
--3---5--7--7--7--5--5--2--7--5--3--5--3--5--9--7--7--5--5--5--|
---------------5-----3-----5-----------------7-----5-----3--3--|

Kasama pang lobo
E|-----|----------------------------------------------------------------
B|-----|--10(12)-10-8---10(12)-(12)-10-8---10(12)-10-8---10--10-10-8----
G|--7--|--------------9------------------9-------------9-------------9--
D|--7--|----------------------------------------------------------------
A|--5--|----------------------------------------------------------------
E|-----|----------------------------------------------------------------

--------------------------------------------8-8-8-10-12-10-7-8----------------
--8--8--8--10--10-8----10-10-10-10-10-8---8--------------------10-10-10-------
--------------------8-------------------9------------------------------12/14--
------------------------------------------------------------------------------
------------------------------------------------------------------------------
------------------------------------------------------------------------------

--------------15-13-12----------17-15-14-15----------14-12-11----------19-17--
-----12-13-13----------13-15-15-------------13-12-12----------12-17-17--------
--14--------------------------------------------------------------------------
------------------------------------------------------------------------------
------------------------------------------------------------------------------
------------------------------------------------------------------------------

--16-17----------15-13-12----------17-18-14-15----15-15-15-15-13-15-14-12--
--------17-13-13----------19-15-15-------------15--------------------------
---------------------------------------------------------------------------
---------------------------------------------------------------------------
---------------------------------------------------------------------------
---------------------------------------------------------------------------

---------------------------------------------------
--15-13-12-----------------------------------------
-----------15-13-12--------------------------------
--------------------14-12-14-12-14-12--------------
--------------------------------------14-12-14-12--
---------------------------------------------------

Coda: | | |
-----------------/--/--/----------------------------------------------------
--10(12)-10-8---10-10-10-8---10(12)-10-8---8-8-8-10-10-8---10-10-10-10-8----
--------------9------------9-------------9---------------9---------------9--
----------------------------------------------------------------------------
----------------------------------------------------------------------------
----------------------------------------------------------------------------

--8-8-8-10-8-10-7-8-10-10-10-10-10--10-10--15--|
-----------------------------------------------|
-----------------------------------------------|
-----------------------------------------------|
-----------------------------------------------|
-----------------------------------------------|

END
Posted by:[email protected]
09193216020

Log In to leave a comment

After registration we will return you to the same place
Comments
face-with-monocle
If you wait a bit, some comments may appear here...

Shhh...

Most Popular
You Might Like