Siakol logo

Bakit Ba Siakol

  • 2
  • Share
  • Transposing
    0
  • Font Size
Siakol – Bakit Ba
°°°°°°°°°°°°°°°°°°°°°°°°°°°°°°°°°°°°°°°°°°°°°°°°°°°°°°°°°°°°°°°°°°°°°°°°°°°°°°°°°°°°°°°°°°°
Title: Bakit ba?
Artist: Siakol
Tabbed by: shortysphere
°°°°°°°°°°°°°°°°°°°°°°°°°°°°°°°°°°°°°°°°°°°°°°°°°°°°°°°°°°°°°°°°°°°°°°°°°°°°°°°°°°°°°°°°°°°
*Standard tuning (EADGBe)

Intro:G-Em-C-D(2x)

Verse 1:
G Bm
Nag-aaliw sa usok at beer lang ang kasama

Guitar 2:
E:-8/10--7h8-7----I
B:-------------8--I
G:----------------I
D:----------------I
A:----------------I
E:----------------I

Em Am D
Mas okey pa'ng laging ganito nalilimutan ka

E:-8p7-8p7-8p7---I
B:-------------8-I
G:---------------I
D:---------------I
A:---------------I
E:---------------I

G Bm
Hindi ko malaman sa'yo kung ano ang drama mo

E:-7-7--8-10-8-7----I
B:---------------8--I
G:-7-7--8-11-8-7-7--I
D:------------------I
A:------------------I
E:------------------I

Em Am D
Bakit lagi mo na lang sinasaktan ang puso ko

E:-8p7-8p7-8p7---I
B:-------------8-I
G:---------------I
D:---------------I
A:---------------I
E:---------------I

G Bm
Tandang-tanda ko pa noong tayo'y namamasyal

E:-8/10--7h8-7----I
B:-------------8--I
G:----------------I
D:----------------I
A:----------------I

Em Am D
Napasulyap lang sa iba bigla mo na kong sinampal

E:-8p7-8p7-8p7---I
B:-------------8-I
G:---------------I
D:---------------I
A:---------------I
E:---------------I

G Bm
At sa kaseselos mo nga'y lalong minahal kita

E:-7-7--8-10-8-7----I
B:---------------8--I
G:-7-7--8-11-8-7-7--I
D:------------------I
A:------------------I
E:------------------I

Em Am D
Subalit nasaan ka na sumama sa iba

E:-----10~---I
B:-7h8-------I
G:-----------I
D:-----------I
A:-----------I
E:-----------I

Chorus:

G Em
Bakit,bakit ba?
C D
Iniwan mong nag-iisa
G Em C D
Bakit,bakit ba sa akin ba'y nag-sawa na
C D
Sinusunod naman kita
C D
Kahit ano kinakaya
C D
Wala pa ring kuwenta
G-Em-C-D-G-Em- C-D
Bakit ba?

Verse 2:
G Bm
Ano ba ang nakita mo? at pinagpalit mo ko?

E:-8/10--7h8-7----I
B:-------------8--I
G:----------------I
D:----------------I
A:----------------I
E:----------------I

Em Am D
Nakasisiguro ka ba ngayon sa bago mo?

E:-8p7-8p7-8p7---I
B:-------------8-I
G:---------------I
D:---------------I
A:---------------I
E:---------------I

G Bm
Sana ay mahalin ka niya, at wag kang sasaktan

E:-7-7--8-10-8-7----I
B:---------------8--I
G:-7-7--8-11-8-7-7--I
D:------------------I
A:------------------I
E:------------------I

Em Am D
Kahit di na tayo problema ay sabihin lang

E:-8p7---------------I
B:-----8--8/10-10/12-I
G:-------7-----------I
D:-------------------I
A:-------------------I
E:-------------------I

G Bm
Pilit ka man limutin ay naghihintay pa rin

E:-8/10--7h8-7----I
B:-------------8--I
G:----------------I
D:----------------I
A:----------------I
E:----------------I

Em Am D
Nagbabakasakali na muli kang dumating

E:-8/10-7h8-7-----I
B:------------8---I
G:--------------7-I
D:----------------I
A:----------------I
E:----------------I

G Bm
Bakit ba kayhirap na kalagayan ko ngayon

E:-7-7--8-10-8-7----I
B:---------------8--I
G:-7-7--8-11-8-7-7--I
D:------------------I
A:------------------I
E:------------------I
Em Am D
Kaya't sa ating sarili laging nagtatanong

E:-----10~---I
B:-7h8-------I
G:-----------I
D:-----------I
A:-----------I
E:-----------I

Chorus:

G Em
Bakit,bakit ba?
C D
Iniwan mong nag-iisa
G Em C D
Bakit,bakit ba sa akin ba'y nag-sawa na
C D
Sinusunod naman kita
C D
Kahit ano kinakaya
C D
Wala pa ring kuwenta
(start adlib here)
Bakit ba?

Adlib:
G-Em-C-D-;(2x)
C-D-;(3x) E

E:-----------------------------------------------------------------------
B:-----------8-10-8-10-8-10-10/12-12~---12-10-8-10-8-7------7-8/10-10----
G:------8-10------------------------------------------9-7-9--------------
D:-8-10------------------------------------------------------------------
A:-----------------------------------------------------------------------
E:-----------------------------------------------------------------------

E:-10-8-7-10-8-7--------------------------------------------------
B:---------------10-8-7---7/8-8--------7-8-10-8-7-------7h8-8/10--
G:----------------------9----------7-9------------9-7-9-----------
D:----------------------------------------------------------------
A:----------------------------------------------------------------
E:----------------------------------------------------------------

E:-|-10-8-7-8----10-8-7---------| |----------------12-10-9-10-9---------------|
B:-|----------8---------8-8/10--|(3x)|-10-10/12-12--12-------------10/12~----10--|
G:-|----------------------------| |-------------------------------------------|
D:-|----------------------------| |-------------------------------------------|
A:-|----------------------------| |-------------------------------------------|
E:-|----------------------------| |-------------------------------------------|

Chorus 2:

A F#m
Bakit,bakit ba?
D E
Iniwan mong nag-iisa
A F#m D E
Bakit,bakit ba, sa akin ba'y nag-sawa na
D E
Sinusunod naman kita
D E
Kahit ano kinakaya
D E
Wala pa ring kuwenta
A F#m
Bakit,bakit bakit ba
D E
Iniwan mong nag-iisa
A F#m D E
Bakit,bakit, ba sa akin ba'y nag-sawa na
D E
Sinusunod naman kita
D E
Kahit ano kinakaya
D E
Wala pa ring kuwenta
A-F#m-D-E-A-F#m-D-E-A(Hold)
Bakit ba?

| / slide up
| slide down
| ~ Let ring
| h hammer-on
| p pull-off

[email protected]
[email protected]

Log In to leave a comment

After registration we will return you to the same place
Comments
face-with-monocle
If you wait a bit, some comments may appear here...

Shhh...

Most Popular
You Might Like