• 0
  • Share
  • Transposing
    0
  • Font Size
Sheila On 7 – Kita
Intro : C  Em7  Dm  G (2X)  C

E:|----------------------------------|-------------------------------------|
B:|----------------------------------|-------------------------------------|
G:|--10--10-s-9---9-s-7---7-s-5-s--9-|--12--12-s-10--10-s-9--9-s-7--7-s-12-|
D:|--10--10-s-9---9-s-7---7-s-5-s--9-|--12--12-s-10--10-s-9--9-s-7--7-s-12-| (2x)
A:|---8---8-s-7---7-s-5---5-s-3-s--7-|--10--10-s--8---8-s-7--7-s-5--5-s-10-|
E:|----------------------------------|-------------------------------------|

C Em7 Dm G C
F G
Disaat kita bersama, diwaktu kita tertawa menangis merenung, oleh cinta
C Em7 Dm G
C
Kau coba hapuskan rasa, rasa dimana kau melayang jauh dari jiwaku, juga
Mimpiku
Dm C
Biarlah biarlah, hariku dan harimu
Em A# G
Terbelenggu satu oleh ucapan manismu

F C
Reff : Dan kau bisikkan kata cinta
Dm Am
Kau telah percikkan, rasa sayang
F C
Pastikan kita seirama
Dm Am
Walau terikat, rasa hina

C Em7 Dm G C

C Em7 Dm G
Sekilas kau tampak layu, jika kau rindukan gelak tawa yang warnai
C
Lembar jalan kita

Dm C
Reguk dan reguklah, mimpiku dan mimpimu
Em A# G
Terbelenggu satu, oleh ucapan janjimu

F C
Reff : Dan kau bisikkan kata cinta
Dm Am
Kau telah percikkan, rasa sayang
F C
Pastikan kita seirama
Dm Am
Walau terikat, rasa hina

Lead guitar : F C Dm Am (2X)

F C
Reff : Dan kau bisikkan kata cinta
Dm Am
Kau telah percikkan, rasa sayang
F C
Pastikan kita seirama
Dm Am
Walau terikat, rasa hina

F C
Dan kau bisikkan kata cinta
Dm Am
Kau telah percikkan, rasa sayang
F C
Akankah kita seirama
Dm Am Am F
Saat terikat, rasa hina

C Em7 Dm G Em A# F Am
E:|----0------0-------1-----3------0-----1-----1------0-----------------|
B:|----1------0-------3-----3------0-----3-----1------1-----------------|
G:|----0------1-------2-----0------0-----3-----2------2-----------------|
D:|----2------0-------0-----0------2-----3-----3------2-----------------|
A:|----3------2-------------2------2-----1-----3------0-----------------|
E:|-----------0-------------3------0-----------1------------------------|

- This is not mine, I found it a long time ago
But I think it is right...

- end of tab

Log In to leave a comment

After registration we will return you to the same place
Comments
face-with-monocle
If you wait a bit, some comments may appear here...

Shhh...