Loading...
Shakur Tupac logo

Thugz Mansion Shakur Tupac

  • 0
  • Share
  • Transposing
    0
  • Font Size
-------------------------------------------------------------------------------
THUGZ MANSION - 2pac
-------------------------------------------------------------------------------

NEW ZEALAND REPRESENT! ~AOTEAROA~

Tabbed by: J.Stowers
Email: [email protected]

Tuning: Standard

| G#m | Cm | A#m | Cm | C#maj7 | A#m | Cm | Gdim |

E|-----------------------------------------------------------------6---------|
B|---4-4------4-4------2----4-------6-----------2---------4--------5---------|
G|---5-5------5-5------3----5-------5-----------3---------5--------6---------|
D|---6-6------5-5------3----5-------6-----------3---------5--------5---------|
A|---6-6------3-3------1----3-------4-----------1---------3------------------|
E|---4-4---------------------------------------------------------------------|

Use This Scale To Add Sum Compliment Picking

E|----------------------------4--6--8--9--11--13-----------------------------|
B|---------------1--2--4--6--------------------------------------------------|
G|--------1---3--------------------------------------------------------------|
D|--1--3---------------------------------------------------------------------|
A|---------------------------------------------------------------------------|
E|---------------------------------------------------------------------------|

Log In to leave a comment

After registration we will return you to the same place
Comments
face-with-monocle
If you wait a bit, some comments may appear here...

Shhh...