Loading...
Shakira logo

Donde Estan Los Ladrones Shakira

  • 0
  • Share
  • Transposing
    0
  • Font Size
Artist: Shakira
Album: Donde Estan Los Ladrones
Song: Donde Estan Los Ladrones
Tabbed By: Chris Suiter ([email protected])

Here is a really kool Shakira song you can add alot of distortion and it sounds really kool
It starts out like this it is a pretty hard song untill you get used to it.
E----------------------------------------------------------------------------------------------|
B----------------------------------------------------------------------------------------------|
G-------------------6--6----------6------------------------------------------------------------|
D----------------7--7--7--7-7-7-7-7-7--9-------------------------------------------------------|
A---9-9-9-7--5---7--7--7--7-7-7-7-7-7--9---11-11-9--7--9--11--11--11-11--11--9--7--------------|
E----------------5--5--5--5-5-5-5-5-5--7-------------------------------------------------------|

E----------------------------------------------------------------------------------------------|
B----------------------------------------------------------------------------------------------|
G-------7---------------7---------9---------9--------------------------------------------------|
D---7---------7-----7---------9--------9----9--------------------------------------------------|
A-5---5-----5---5-5---5-----7---7----7---7--7--------------------------------------------------|
E----------------------------------------------------------------------------------------------|

Then it goes into the verse which is
E-----------------------------------------------------------------------------------------------|
B-----------------------------------------------------------------------------------------------|
G----6--6----------6----------------------------------7----------------7--------9--------9------|
D-7--7--7--7-7-7-7-7-7--9------------------------7---------7------7--------9--------9----9------|
A-7--7--7--7-7-7-7-7-7--9--11--11--9---7---9---5---5-----5---5--5---5----7---7----7---7--7------|
E-5--5--5--5-5-5-5-5-5--7-----------------------------------------------------------------------|

Still the verse here
E-----------------------------------------------------------------------------------------------|
B-----------------------------------------------------------------------------------------------|
G----6--6----------6----------------------------------7----------------7--------9--------9------|
D-7--7--7--7-7-7-7-7-7--9------------------------7---------7------7--------9--------9----9------|
A-7--7--7--7-7-7-7-7-7--9-hold-----------------5---5-----5---5--5---5----7---7----7---7--7------|
E-5--5--5--5-5-5-5-5-5--7-----------------------------------------------------------------------|

This is the chorus and it starts out with a wild little finger slide and then distorted power
Chords you do the finger slide only on the first time but you play the first set of chords
Twice in a row and then play the second set once and repeat play it together twice and end on
The part shown below this
E------------------------------------------------------------------------------------------------|
B------------------------------------------------------------------------------------------------|
G------------------------------------------------------------------------------------------------|
D-------4-4-4-4-4---6--7-7-7-7-7-7-----9-9-9-9-9--11--12-12-12-12-12-12--14-14-14-14-14-14-14-14-|
A-------4-4-4-4-4---6--7-7-7-7-7-7-x2--9-9-9-9-9--11--12-12-12-12-12-12--14-14-14-14-14-14-14-14-|
E-3 /15--2-2-2-2-2---4--5-5-5-5-5-5-----7-7-7-7-7--9---10-10-10-10-10-10--12-12-12-12-12-12-12-12-|

This is how the chorus ends
E-----------------------------------------------------------------------------------------------|
B-----------------------------------------------------------------------------------------------|
G-----------------------------------------------------------------------------------------------|
D-9--11-12-14---9--11-12-14---------------------------------------------------------------------|
A-9--11-12-14---9--11-12-14---------------------------------------------------------------------|
E-7--9--10-12---7--9--10-12---------------------------------------------------------------------|

Then another verse
E-----------------------------------------------------------------------------------------------|
B-----------------------------------------------------------------------------------------------|
G----6--6----------6---------------------------------------7-------------7--------9---------9---|
D-7--7--7--7-7-7-7-7-7--9--------9-----------9----------7------7------7--------9--------9---9---|
A-7--7--7--7-7-7-7-7-7--9----9-----9---9---9--9--9----5---5--5---5--5---5----7---7----7---7-7---|
E-5--5--5--5-5-5-5-5-5--7--7---7-----7---7-----7------------------------------------------------|

Still the same verse
E-----------------------------------------------------------------------------------------------|
B-----------------------------------------------------------------------------------------------|
G-------------------6--6----------6-------------------------------------------------------------|
D----------------7--7--7--7-7-7-7-7-7--9--------------------------------------------------------|
A---9-9-9-7--5---7--7--7--7-7-7-7-7-7--9---11-11-9--7--9--11--11--11-11--11--9--7---------------|
E----------------5--5--5--5-5-5-5-5-5--7--------------------------------------------------------|

Still the same verse
E-----------------------------------------------------------------------------------------------|
B-----------------------------------------------------------------------------------------------|
G-------7---------------7---------9---------9---------------------------------------------------|
D---7---------7-----7---------9--------9----9---------------------------------------------------|
A-5---5-----5---5-5---5-----7---7----7---7--7---------------------------------------------------|
E-----------------------------------------------------------------------------------------------|

Another chorus
E------------------------------------------------------------------------------------------------|
B------------------------------------------------------------------------------------------------|
G------------------------------------------------------------------------------------------------|
D-------4-4-4-4-4---6--7-7-7-7-7-7-----9-9-9-9-9--11--12-12-12-12-12-12--14-14-14-14-14-14-14-14-|
A-------4-4-4-4-4---6--7-7-7-7-7-7-x2--9-9-9-9-9--11--12-12-12-12-12-12--14-14-14-14-14-14-14-14-|
E-3 /15--2-2-2-2-2---4--5-5-5-5-5-5-----7-7-7-7-7--9---10-10-10-10-10-10--12-12-12-12-12-12-12-12-|

This is how the chorus ends
E-----------------------------------------------------------------------------------------------|
B-----------------------------------------------------------------------------------------------|
G-----------------------------------------------------------------------------------------------|
D-9--11-12-14---9--11-12-14---------------------------------------------------------------------|
A-9--11-12-14---9--11-12-14---------------------------------------------------------------------|
E-7--9--10-12---7--9--10-12---------------------------------------------------------------------|

Then the song ends with Shakira playing the harmonica and just guitar feedback but this is a
Kool place to put a improvised guitar solo this is what i play end on the chord and then do
A pick slide.
E-----------------------------------------------------------------------------------------------|
B-----------------------------------------------------------------------------------------------|
G-----------------------------------------------------------------------------------------------|
D-11--9--7--9-7-----------------------------------------------7---------------------------------|
A----------------9--7--9/12--9--7--9--7--------------------7--7---------------------------------|
E---------------------------------------9--7-9/12--9--7-9-----5---------------------------------|

Questions or comments to [email protected]

Log In to leave a comment

After registration we will return you to the same place
Comments
face-with-monocle
If you wait a bit, some comments may appear here...

Shhh...