Sex Pistols logo

Cmon Everybody Sex Pistols

  • 1
  • Share
  • Transposing
    0
  • Font Size
    15
Sex Pistols – Cmon Everybody
Intro/Chorus
E 1-1-1-1--6-6-6-6--8-8-----6-6--1-1-1-1
B 1-1-1-1--6-6-6-6--8-8-----6-6--1-1-1-1
G 2-2-2-2--7-7-7-7--9-9-----7-7--2-2-2-2
D 3-3-3-3--8-8-8-8--10-10---8-8--3-3-3-3 x2
A 3-3-3-3--8-8-8-8--10-10---8-8--3-3-3-3
E 1-1-1-1--6-6-6-6--8--8----6-6--1-1-1-1

Verse (palm muted)
E-------------------------------------------------
B
G------------------------------------------------- x2
D-3-3-3-3-3-3-3-3-3-3-3-3-3-3-3-3-2-3-3-3-2-2-3-3-3
A-3-3-3-3-3-3-3-3-3-3-3-3-3-3-3-3-2-3-3-3-2-2-3-3-3
E-1-1-1-1-1-1-1-1-1-1-1-1-1-1-1-1-0-1-1-1-0-0-1-1-1

Then Play this after the above
Verse part2
E--------------------------------------------
B--------------------------------------------
G
D-8-8-8-8-10-10-10-10-8-8-8-8-10-10-10-10-3--
A-8-8-8-8-10-10-10-10-8-8-8-8-10-10-10-10-3--
E-6-6-6-6-8--8--8--8--6-6-6-6-8--8--8--8--1--

ORDER of play

Intro
Verse verse part2
Chorus
Verse verse part2
Chorus
Verse verse part2
Chorus x2

Log In to leave a comment

After registration we will return you to the same place
Comments
face-with-monocle
If you wait a bit, some comments may appear here...

Shhh...