Loading...
Sevendust logo

Denial Sevendust

  • 0
  • Share
  • Transposing
    0
  • Font Size
Sevendust --- Denial

Tabbed by Matt Gates
Intro
G -----------------------------------------
D -----------------------------------------
A -3/7-3/5-3/7-3/4-4/7-3/6-3/5-3-3/4-------
E -----------------------------------------
C# -----------------------------------------

After Intro
G -----------------------------------------
D -----------------------------------------
A --------------------------------4--------
E -----------------------------------------
C# -2p0-0-0-2p0-0-0-2p0-0-0-2p0-------------

Verse
G -----------------------------------------
D -----------------------------------------
A ---------------------------------4-------
E -----------------------------------------
C# -1p0-0-0-1p0-0-0-1p0-0-0-1p0-------------

Chorus
G -------------------------------------------------------------------
D -5-5-5-5-5-7-7-7-7-7-----------------------------------------------
A -------------------------------------------------------------------
E -------------------------------------------------------------------
C# ----------------------6-6-6-6-6-4-4-4-4/12-4/12--2-3-4-5-6-2/3-2/3-

Break
G ------------------------------------------------------------------------
D ------------------------------------------------------------------------
A ------------------4--3-3-3-3/5-5-5-5/3-3-3-3/1-1-1-1-/0-0-0-0/1-1-1-1-1-
E -------------------------------------------------------------------------
C# -1p0-1p0-1p0-1p0--------------------------------------------------------

Log In to leave a comment

After registration we will return you to the same place
Comments
face-with-monocle
If you wait a bit, some comments may appear here...

Shhh...

Most Popular
You Might Like