Loading...
Sepultura logo

Stronger Than Hate Sepultura

  • 0
  • Share
  • Font Size
Sepultura – Stronger Than Hate
================================================================================
Title : Stronger Than Hate
Artist : Sepultura
Album : Beneath the remains
Transcribed by : By DimeBolt ([email protected])
================================================================================

Legend
------
h - Hammer-on
p - Pull-off
~ - Vibrato
/ - Slide up
- Slide down
Repeat previous bar
% - Repeat previous two bars
Not Sure - Riff may not be accurate

Intro (Fast) Solo
1||------|---------|---------||-----------------|-----------------|
2||------|---------|---------||-----------------|-----------------|
3||------|---------|---------||-----------------|-----------------|
4||------|-3-------|-3-------||-----------------|-----------------|
5||-2----|-1-2-----|-1-2-----||-2---------------|-2---2---2---2---|
6||-0----|---0-----|---0-----||-0-0-0-0-0-0-0-0-|-0-0-0-0-0-0-0-0-|

Slower
1||-----------------|-----------------||------|-----|------|-----||
2||-----------------|-----------------||------|-----|------|-----||
3||-----------------|-----------------||------|-----|------|-----||
4||-----------------|-----------------||------|-----|------|-----||
5||-6---------------|-6-------6---6---||-2----|-----|-2----|-----||
6||-4-4-4-4-4-4-4-4-|-4-4-4-4-4---4---||-0----|-----|-0----|----||

1x 3x 1x 2x
1||-----------------||-----------------||------------------||------------------||
2||-----------------||-----------------||------------------||------------------||
3||-----------------||-----------------||------------------||-8----------------||
4||-----------------||-6---------------||-6-----9-10-----9-||-6-----9-10-----9-||
5||-------7-8-----7-||-------7-8-----7-||-------7--8-----7-||-------7--8-----7-||
6||-0-0-0-----0-0---||---0-0-----0-0---||---0-0------0-0---||---0-0------0-0---||

This riff is played over next part
1||------------------||--------------|-------||-----------------||
2||------------------||--------------|-------||-----------------||
3||-8-------9-8------||--------------|-------||-7-6-7-7---------||
4||-6-------7-6-10-9-||--------------|-------||---------7-6-7-6-||
5||--------------8-7-||-----2--------|-------||-----------------||
6||---0-0-0----------||-0-0-0--------|-------||-----------------||

1||------|-----|------|------||-------------|-----|------|------||-------||
2||------|-----|------|------||-------------|-----|------|------||-------||
3||------|-----|------|------||-------------|-----|------|------||-------||
4||------|-----|------|------||-------------|-----|------|------||-------||
5||-5----|-----|-1----|-4----||-----5-------|-----|-1----|-4----||-3-3---||
6||-5----|-----|-1----|-4----||-0-0-5-------|-----|-1----|-4----||-1-1---||

Verse (I shall redeem myself from...)
1||-----------------|-----------------|------------------|-----------------||
2||-----------------|-----------------|------------------|-----------------||
3||-----------------|-----------------|------------------|-8---------------||
4||-----------------|-6---------------|-6-----9-10-----9-|-6---------------||
5||-------7-8-----7-|-------7-8-----7-|-------7--8-----7-|-----------------||
6||-0-0-0-----0-0---|---0-0-----0-0---|---0-0------0-0---|---0-0-0-0-0-0-0-||

3x 3x
1||-----------------||------------------||-----------------||-----------------|
2||-----------------||------------------||-----------------||-----------------|
3||-----------------||------------------||-----------------||-----------------|
4||-----3-----3---3-||------------------||-----3-----3---3-||-----------------|
5||-----1-----1---1-||------------------||-----1-----1---1-||---3-3---3---3-3-|
6||-0-0---0-0---0---||-0000000000000000-||-0-0---0-0---0---||-0-1-1-0-1-0-1-1-|

Faster
1||-----------------|-----------------||-----------------|-----------------||
2||-----------------|-----------------||-----------------|-----------------||
3||-----------------|-----------------||-----------------|-----------------||
4||-----------------|-----------------||-----------------|-------------4---||
5||---------2-----2-|-------2---3---2-||---------6-----5-|---4-----3---2---||
6||-11111111--1111--|-111111--1---1---||-44444444--4444--|-44--4444--4-----||

1||-----------------||------------------||-----------------||
2||-----------------||------------------||-----------------||
3||-----------------||------------------||-----------------||
4||-----------------||----------6-5-----||-----------------||
5||-7-----6---7-----||-------/7-----8-7-||-----------------||
6||---0-0---0---0-0-||-00000------------||-0000000-0-0-0-0-||

1||-------|--------------------||------------------|-----------------||
2||-------|--------------------||------------------|-----------------||
3||-9-----|-/13-----1210------||-9----------------|-----------------||
4||-9-----|--------------------||-9----------------|-9---9---10------||
5||-7-----|-/11-----10-8------||-7777777777777777-|-7-7-7-7--8------||
6||-0-----|--------------------||-0----------------|-----------------||

Solo
1||------------------||------------------||-----------------|-----------------||
2||------------------||------------------||-----------------|-----------------||
3||------------------||------------------||-----------------|-----------------||
4||------------------||------------------||-----------------|-----------------||
5||------------------||------------------||-----5-------5---|-----------------||
6||-0000000000000000-||-2222222222222222-||-2-2-3---2-2-3---|-2-2---2---2-2---||

Notes in () play 1st time
1||------------------||------|-----|------|------||------|-----|------|------|
2||------------------||------|-----|------|------||------|-----|------|------|
3||------------------||------|-----|------|------||------|-----|------|------|
4||------------------||------|-----|------|------||------|-----|------|------|
5||------------------||-2----|-----|-2----|---(2)||-4----|-----|-4----|----4-|
6||-0000000000000000-||-0----|-----|-0----|---(0)||-2----|-----|-2----|----2-|

Softer Not sure
1||------|-----|------|-----|------|-----|------|-----|-------|-------||---|
2||------|-----|------|-----|------|-----|------|-----|-------|-------||---|
3||------|-----|------|-----|------|-----|------|-----|-------|-------||---|
4||------|-----|------|-----|------|-----|------|-----|-8--8--|-8--8--||---|
5||-2----|-----|-2----|-----|-2----|-----|-2----|-----|-6--6--|-6--6--||-2-|
6||-0----|-----|-0----|-----|-0----|-----|-0----|-----|-------|-------||-0-|

Slower
1||-----------------|-----------------||-----------------|-----------------||
2||-----------------|-----------------||-----------------|-----------------||
3||-----------------|-----------------||-----------------|-----------------||
4||-----------------|-----------------||-----------------|-----------------||
5||-----8-----8---8-|-----------------||-8-----8-----8---|---8-----9-9-9-9-||
6||-0-0-6-0-0-6-0-6-|-0-0-660-660-660-||-6-6-6-6-6-6-6-6-|-6-6-6-6-7-7-7-7-||

1||-----------------|-----------------||-----------------|-----------------|
2||-----------------|-----------------||-----------------|-----------------|
3||-----------------|-----------------||-----------------|-----------------|
4||-----------------|-----------------||-------------2---|-------------3---|
5||-2-----2-----2---|---2-----3-3-3-3-||---2-3---2-3---3-|---2-3---2-3---3-|
6||-0-0-0-0-0-0-0-0-|-0-0-0-0-1-1-1-1-||-0-----0---------|-1-----1---------|

3x
1||-----------------|-----------------||-----------------||-----------------||
2||-----------------|-----------------||-----------------||-----------------||
3||-----------------|-----------------||-----------------||-----------------||
4||-----------------|-----------------||-----3-----3---3-||-----------------||
5||---5-6---5-6---5-|---5-6---5-6---5-||-----1-----1---1-||-2-2-2-2-2-2-2-2-||
6||-4-----4-----4---|-4-----4-----4---||-0-0---0-0---0---||-0-0-0-0-0-0-0-0-||

1||-----------------|-----------------||-----------------|-----------------||
2||-----------------|-----------------||-----------------|-----------------||
3||-----------------|-----------------||-----------------|-----------------||
4||-----------------|-----------------||-----------------|-----------------||
5||-4-4-4-4-4-4-4-4-|-4-4-4-4-4-4-----||---------3-----3-|---4-------------||
6||-2-2-2-2-2-2-2-2-|-2-2-2-2-2-2-2/-||-2-2-2-2---2-2---|-2---2-2-222-1-0-||

Bit before bass solo
1||-----------------|-----------------||-----------------|-----------------||
2||-----------------|-----------------||-----------------|-----------------||
3||-----------------|-----------------||-----------------|-----------------||
4||-----4-------4---|-----4-------5---||-----------------|-----------------||
5||-----2-------2---|-----2-------3---||-3-3-----3-3-----|-3-3-----3-3-----||
6||-1-1-----1-1-----|-1-1-----1-1-----||-1-1-----1-1-----|-1-1-----1-1-----||

Log In to leave a comment

After registration we will return you to the same place
Comments
face-with-monocle
If you wait a bit, some comments may appear here...

Shhh...