Loading...
Sepultura logo

Roots Bloody Roots Sepultura

  • 2
  • Share
  • Transposing
    0
  • Font Size
------------------------
*ROOTS BLOODY ROOTS*
------------------------

Written by: Sepultura

Transcribed by Max Asare

5-string bass in standard tuning (B,E,A,D, G)

INTRO/VERSE

G||--------------------------|
D||--------------------------|
A||--------------------------|
E||--------------------------|
B||--0--1--1--0--1--1--0--1--|

CHORUS:

A||--------------------------|--------------------------|
E||--------------------------|--------------------------|
B||--0--1--1--0--1--1--1--2--|--0--1--1--0--1--1--1--2--|

Distortion on Distortion off

BREAK IN VERSE:

A||-----------------------------|
E||-----------------------------|
B||--5--5--3--3--2--2--0--2--5--|

FIRST BRIDGE:

A||--------| PLAY |------------|
E||--------| FOUR |------------|
B||--0--0--| TIMES |--7--7--7--|

THIS PART GOES
REALLY FAST
------
OUTRO:

A||--------------------| PLAY |--------------------------|
E||--------------------| EIGHT |--------------------------|
B||--1--0--0--1--0--0--| TIMES |--2--2--2--2--2--2--2--2--|

A||--------------------------------| PLAY
E||--------------------------------| FOUR
B||--1--0--2--1--1--0--2--1--1--1--| TIMES

A||------| PLAY |--------------------| PLAY
E||------| |--------------------| THIS SUCKER
B||--5--| TWICE |--1--1--1--1--1--0--| 'TIL THE END OF THE SONG

Log In to leave a comment

After registration we will return you to the same place
Comments
face-with-monocle
If you wait a bit, some comments may appear here...

Shhh...

Most Popular
You Might Like