Loading...
Sepultura logo

Refuse Resist Sepultura

  • 0
  • Share
  • Transposing
    0
  • Font Size
#----------------------------------PLEASE NОТЕ---------------------------------#
#This file is the author's own work and represents their interpretation of the #
#song. You may only use this file for private study, scholarship, or research. #
#------------------------------------------------------------------------------##
Date: Mon, 24 Jul 1995 00:34:11 -0700

Refuse/Resist
By Sepultura from Chaos A. D.
Transcribed by Travis Higgins
[email protected]
Http://www.primenet.com/~travis/bass.html

Tune bass from low to high (D, G, D, G)
Meaning tune down top 2 strings 1 whole step

This is just a killer song, with a cool rhythm and beat, and
It's a lot of fun to play. It's a real workout for your
Drummer too, if you got one. Just work on the timing, by
Listening to the CD.

After drum intro (4 times)
||-------------------------||
||*-----------------------*||
||*-----------------------*||
||---1--1--1--1--0---------||

(8 times)
||----------------------------------------||----
||*--------------------------------------*||----
||*--------------------------------------*||----
||---6--6--6--6--0--6--6--6--6--0--6--0---||----

||-------------------|--------------------|--------------------|-
||*------------------|--------------------|--------------------|-
||*1-----4-----7--7--|--1-----4-----7--7--|--1-----4-----7--7--|-
||-------------------|--------------------|--------------------|-

(2 times)
------------------------||
-----------------------*||
-----------------------*||
0-----0-----0-----0--0--||

Verse (8 times)
||-----------------|-------------||-
||*----------------|------------*||-
||*----------------|------------*||-
||--0--0--0--0--0--|----1--2--3--||-

(4 times)
||----------------------------------------||----
||*--------------------------------------*||----
||*--------------------------------------*||----
||---6--6--6--6--0--6--6--6--6--0--6--0---||----

Verse (8 times)
||-----------------|-------------||-
||*----------------|------------*||-
||*----------------|------------*||-
||--0--0--0--0--0--|----1--2--3--||-

Chorus
---------------------------------|-----------------------------|-
---------------------------------|-----------------------------|-
---------------------------------|-----------------------------|-
8--8--8--8--8-----4--4--4-----2--|--6--6--6--6--6-----4-----0--|-

---------------------------------|----------------------|-----------
---------------------------------|----------------------|-----------
---------------------------------|----------------------|-----------
8--8--8--8--8-----4--4--4-----2--|-6--6--6--6--6-----4--|-----------

Time change
Guitar fill then

Guitar solo (8 times)
||---------------------------------------------------||-
||*-------------------------------------------------*||-
||*-------------------------------------------------*||-
||--2--2--2--2--2--2--2--2--2--2--2--2--2--2--2--4---||-

(4 times)
||------------------------------------------------||-
||*----------------------------------------------*||-
||*-6--5-----5--------------6--5-----5--5--5--5--*||-
||--------------5--4-----4------------------------||-

(4 times)
||----------------------------------------||----
||*--------------------------------------*||----
||*--------------------------------------*||----
||---6--6--6--6--0--6--6--6--6--0--6--0---||----

Then verse (8 times)
Then chorus

(8 times)
||----------------------------------------||----
||*--------------------------------------*||----
||*--------------------------------------*||----
||---6--6--6--6--0--6--6--6--6--0--6--0---||----

Оuтrо (5 times)
||-------------------------||
||*-----------------------*||
||*-----------------------*||
||---1--1--1--1--0---------||

==========================================================================
== Created with a shareware version of the BUCKET 'О TAB ==
== tablature creation software for Windows ==
== For more information: ==
== email: [email protected] ==
== US Mail: The Bucket, 3176- B5 Summit Square Dr., Оактоn, VA 22124 ==
==========================================================================

Log In to leave a comment

After registration we will return you to the same place
Comments
face-with-monocle
If you wait a bit, some comments may appear here...

Shhh...

Most Popular
You Might Like