Sepultura logo

Primitive Future Sepultura

  • 0
  • Share
  • Font Size
Sepultura – Primitive Future
================================================================================
Title : Primitive Future
Artist : Sepultura
Album : Beneath the remains
Transcribed by : By DimeBolt ([email protected])
================================================================================

Legend
------
h - Hammer-on
p - Pull-off
~ - Vibrato
/ - Slide up
- Slide down
Repeat previous bar
% - Repeat previous two bars
Not Sure - Riff may not be accurate

Intro (Fast)
1||-----------------||-----------------|-----------------||-----------------||
2||-----------------||-----------------|-----------------||-----------------||
3||-----------------||-----------------|-----------------||-----------------||
4||-------------3---||-----------------|-------------3---||-----------------||
5||-2---3---2---1---||-----------------|-------------1---||-2---2---2---2---||
6||-0---1---0-------||-000-110-000-110-|-000-110-000-----||-0---0---0---0---||

Main Riff
1||-----------------|-----------------||------------------|------------------|
2||-----------------|-----------------||------------------|------------------|
3||-----------------|-----------------||------------------|------------------|
4||-------------3---|-----------------||------------------|------------------|
5||-----3-------1---|-----------------||-2-------3--------|-8----------------|
6||-000-1---000-----|-000-110-000-110-||-0--000001--00000-|-6--000000-000000-|

1||------------------|------------------||-----------|----------------||
2||------------------|------------------||-----------|----------------||
3||------------------|------------------||-9---------|-/13----12----||
4||------------------|------------------||-----------|----------------||
5||-2-------3--------|-6----------------||-7---------|-/11----10----||
6||-0--000001--00000-|-4--000000-000000-||-----------|----------------||

1||-----------|---------------||-----------------|-----------------||
2||-----------|---------------||-----------------|-----------------||
3||-8---------|-/10----/11----||-----------------|-----------------||
4||-----------|---------------||-----------------|-----------------||
5||-6---------|--/8-----/9----||---------6p5-----|-8p7---------6---||
6||-----------|---------------||-0-0-0-0-----0-0-|-----0-0-5-4-4---||

Chorus
1||---------------------||-----------------|-----------------||-----------------||
2||---------------------||-----------------|-----------------||-----------------||
3||---------------------||-----------------|-----------------||-----------------||
4||---------------------||-----------------|-----------------||-----------------||
5||-----6-------6---6---||-2---------------|-------------6---||-----------------||
6||-5-4-4---5-4-4---4---||-0---0-0-0-0-0-0-|-0-0-0-0-0-0-4---||-1-110-0-0-0-0-0-||

Pre Solo Solo
1||-----||-----|-----|-----|-----||-----------------|-----------------|
2||-----||-----|-----|-----|-----||-----------------|-----------------|
3||-----||-----|-----|-----|-----||-----------------|-----------------|
4||-----||-----|-----|-----|-----||-----------------|-----------------|
5||-2---||-6---|-----|-2---|-----||-2---------------|-------------7---|
6||-0---||-4---|-----|-0---|-----||-0---0-0-0-0-0-0-|-0-0-0-0-0-0-5---|

1||-----------------|-----------------||------|------|------|------||
2||-----------------|-----------------||------|------|------|------||
3||-----------------|-----------------||------|------|------|------||
4||-----------------|-----------------||-2----|----7-|-6----|-3----||
5||-6---------------|-------------7---||-0----|----5-|-4----|-1----||
6||-4---4-4-4-4-4-4-|-4-4-4-4-4-4-5---||------|------|------|------||

Drum Break
1||----|---|----|---|----|---|----|----------||------------------|
2||----|---|----|---|----|---|----|----------||------------------|
3||----|---|----|---|----|---|----|----------||------------------|
4||----|---|----|---|----|---|----|----------||------------------|
5||-2--|---|-2--|---|-2--|---|-2--|-2--2--2--||------------------|
6||-0--|---|-0--|---|-0--|---|-0--|-0--0--0--||-0000000000000000-|

1||------------------|-------------------|------------------||-----------------|
2||------------------|-------------------|------------------||-----------------|
3||------------------|-------------------|------------------||-----------------|
4||------------------|-------------------|------------------||---------4-------|
5||------------------|-/7777777777777777-|-----7777---------||-----------5---5-|
6||-0000000000000000-|-------------------|-0000----00000000-||-33333333----3---|

1||-----------------|-----------------|-----------------||-------------||
2||-----------------|-----------------|-----------------||-------------||
3||-----------------|-----------------|-----------------||-------------||
4||---------4-------|---------4-------|-------------6---||-------------||
5||-----------5---6-|-----------5---5-|-----------5-----||-5-----5-----||
6||-33333333----3---|-33333333----3---|-333333334-----4-||-3-----3-----||

Last time
1||-----------------|------------------||-----------------|-----------------||
2||-----------------|------------------||-----------------|-----------------||
3||-----------------|------------------||-----------------|-----------------||
4||-----------------|------------------||-----------------|-----------------||
5||-----7-------7---|-----7------------||-----7-------7---|-----7---2---3---||
6||-0000--6-0000--6-|-0000--6-66666666-||-0000--6-0000--6-|-0000--6-0---1---||

1||-------|----------|-------|----------||
2||-------|----------|-------|----------||
3||-------|----------|-------|----------||
4||-------|----------|-------|----------||
5||-2-----|----6--6--|-2-----|----3-3---||
6||-0-----|----4--4--|-0-----|----1-1---||

Log In to leave a comment

After registration we will return you to the same place
Comments
face-with-monocle
If you wait a bit, some comments may appear here...

Shhh...

Most Popular
You Might Like