Loading...
Sepultura logo

Attitude Sepultura

  • 0
  • Share
  • Transposing
    0
  • Font Size
RIFF 1
-----------------------------------------|
-----------------------------------------|
-----------------------------------------|
-----------------------------------------|
|-0-0---0-0---0-0---0-0-----0-0---0-0---0-0---0-0-0--|
|-0-0---0-0---0-0---0-0-----0-0---0-0---0-0---0-0-0--|

RIFF 2
---------|
---------|
---------|
---------|
---------|
|-1/3-3-3-3/4---4/6--|

RIFF 3
|----------|
|----------|
|----------|
|----------|
|----------|
|-1h3-3-3--|

RIFF 4
-----------------------|
-----------------------|
-----------------------|
|-----4-----4---4------------------|
2---2------------------|
|-3-3---3-3---3---3-3-3-3-3-3-3-3--|

RIFF 5
-----------------------|
-----------------------|
-----------------------|
-----------------------|
-----------------------|
|-0-0-6-0-0-6-0-6-0-0-0-0-0-0-0-0--|

RIFF 6
|--------|
|--------|
|--------|
|--------|
|-1-1h3--|

SONG STRUCTURE:

INTRO (BASS)

RIFF 1 - 4x
RIFF 2 - 8x

RIFF 3 ( 12 x )
One Week Of Struggling
On The Real World Is..
So You Can See!!!

Feel Your Soul And...
Shape Your Mind To Warfare
It´s All For Real

RIFF 2 - 8x

RIFF 3 - 12x
Live Your Life
Not The Way They Taught You
Do What You Feel!

Survive The Jungle
Give Me Blood
Give Me Pain
These Scars Won´t Heal

BASS SOLO

RIFF 2 - 8x

RIFF 3 - 12x
What Were You Thinking
What A Wonderful World!!!
You´re Full Of Shit

Leave It Behind
They Don´t Care If You Cry
All Is Left Is Pain

Can You Take It?
Can You Take It?
Can You Take It?
Can You Take It?

RIFF 4 - 16x
RIFF 5 - 8x
The Only Way
To Get Away
Kill Your Pride
Attitude

I Won´t Take It
I Won´t Take It
I Won´t Take It
I Won´t Take It

SOLO

RIFF 5 - 8x
RIFF 2 - 16x + SOLO
RIFF 6 - 16x
So In The End
I Want To See Some Respect
(I Said)
You Better Show Some Respect
(I Said)
Attitude And Respect

RIFF 1 - 1x

Log In to leave a comment

After registration we will return you to the same place
Comments
face-with-monocle
If you wait a bit, some comments may appear here...

Shhh...

Versions

Most Popular
You Might Like