Sentenced logo

Warrior Of Life Sentenced

  • 0
  • Share
  • Transposing
    0
  • Font Size
Sentenced – Warrior Of Life
 Warrior of Life
-----------------
by SENTENCED

Tab by Asko Мдкi [email protected]

Tune Down to D

Riff 1
D5 D5 D5 D5 C5
D|-------------------------------------------------------------------|
A|-------------------------------------------------------------------|
F|-------------------------------------------------------------------|
C|------7-7-6-6-7-7---------5-5----------7-7-6-6-7-7---------5-5-----|
G|--5-5-------------7-7-8-8-----8-8--5-5-------------7-7-8-8-----8-8-|
D|-------------------------------------------------------------------|

end riff 1
D5 D5 D5 D5
|---------------------------------------------------------------|
|---------------------------------------------------------------|
|---------------------------------------------------------------|
|-----7-7-6-6-7-7---------5-5----------7-7-6-6-7-7--------------|
|-5-5-------------7-7-8-8-----8-8--5-5--------------------------|
|---------------------------------------------------------------|

w/rhy fig 2
riff 2
|-------------------------------------------------8--7--|
|'-----10--9------------------------10--9---------------|
|-----------------9--10------7-------------9--10--------|
|--0-0--------0-0--------0-0----0-0---------------------|
|'------------------------------------------------------|
|-------------------------------------------------------|

end riff 2
|--------------------------------------------------------|------
|-----10--9-------------------------10--9---------------'|------
|-----------------9--10------7-------------9--10--12--8--|--7---
|-0-0--------0-0---------0-0----0-0----------------------|------
|-------------------------------------------------------'|------
|--------------------------------------------------------|------

rhy fig 2
|----------------------------------------------------|
|'---------------------------------------------------|
|----------------------------------------------------|
|------7-7------7-7------7------7-7------7-7------7--|
|'-5-5-5-5--5-5-5-5--5-5-5--5-5-5-5--5-5-5-5--5-5-5--|
|----------------------------------------------------|
end rhy fig 2
|--------------------------------------------------|------
|-------------------------------------------------'|------
|--------------------------------------------------|------
|------------------------------5-5--------------8--|--7---
|-----5-5------5-5------5--3-3-3-3--3-3-6-5-3-5-6-'|--5---
|-6-6-6-6--6-6-6-6--6-6-6--------------------------|------

--D--C--H--A#--D--C-- H--A#--

w/rhy fig 3
|-------------------------------------------------|
|-10--8h10p8--------------------------------------|
|-------------10--9---7----7--9--10--7------7--9--|
|-----------------------10--------------10--------|
|-------------------------------------------------|
|-------------------------------------------------|

|-----------------------------------------|
|-10--8h10p8------------------------------|
|-------------10--9---7----7--9--10--7----|
|-----------------------10----------------|
|-----------------------------------------|
|-----------------------------------------|

Rhy fig 3

Just figure out the rythm by yourself

-D5-D5-D5-C5-C5-C5-C5-C5-H5-H5-H5-A#-A#-A#- A#-A#--

A# in here is x10xxx

-D5-D5-D5-C5-C5-C5-C5-C5-H5-H5-H5-A#-A#- G5-G5-

Rhy fig 4
|--------------------------------------------------|
|--------------------------------------------------|
|--------------------------------------------------|
|--------------------------------------------------|
|-5-/7-7-5-5-/(7)-----5-/7-7-5-5-/7-8--8-5--5---|
|-3-/5-5-3-3-/(5)-----3-/5-5-3-3-/5-6--6-3--3---|

end rhy fig 4
|-------------------------------------------|
|-------------------------------------------|
|-------------------------------------------|
|---------------------------------------8---|
|-5-/7-7-5-5-/(7)-----5-/7-7-5-5-/7--3---|
|-3-/5-5-3-3-/(5)-----3-/5-5-3-3-/5------|

Riff 3
A#5 C5 F5 G5
|---------------------------------------------|
|---------------------------------------------|
|---------------------------------------------|
|-3--5--3--2---2--0---------------------------|
|--------------------3--3--5--3--5---5--3--2--|
|---------------------------------------------|

end riff 3
A#5 C5 D5 D5
|---------------------------------------|
|---------------------------------------|
|---------------------------------------|
|-3--5--3--2---2--0-----0--------0------|
|--------------------3------------------|
|---------------------------------------|

Rhy fig 3
Rhy fig 4
Riff 1
Guitar solo w/rhy fig 3 & rhy fig 4
Riff 3
Riff 1

Log In to leave a comment

After registration we will return you to the same place
Comments
face-with-monocle
If you wait a bit, some comments may appear here...

Shhh...

Most Popular
You Might Like