Scorpions logo

When You Came Into My Life Scorpions

  • 0
  • Share
  • Transposing
    0
  • Font Size
Scorpions – When You Came Into My Life
Intro:
Bm D A G
e:------------------------5----------------------------|
b:----2---3---2-------5-------5-------0-2-3-2-0--------|
G:---4--4---4----4---7--7---7----7---2----------2-4----|
D:--4-----------4---7-----------7---2-------------5----|
A:-2---------------5---------------0--------------5----|
E:------------------------------------------------3----|

1st Verse:
Bm D A G
e:--------2---------------5---------------------------------------
b:----2-------2-------5-------5-------0-2-3-2-0------0---3---0----
G:---4--4---4----4---7--7---7----7---2----------2---2--2---2------
D:--4-----------4---7-----------7---2----------2---0--------------
A:-2---------------5---------------0------------------------------
E:------------------------------------------------3---------------

Bm D A G
E:--------2---------------5---------------------------------------
B:----2-------2-------5-------5-------0-2-3-2-0------0-3-0---0----
G:---4--4---4----4---7--7---7----7---2-------2--2---2-------2-----
D:--4-----------4---7-----------7---2--------------0-------0------
A:-2---------------5---------------0------------------------------
E:------------------------------------------------3---------------

Em F#m
E:-------------------------|
B:--------0----------------|
G:----0--------0--0--------|
D:---2--2-----2--2-4-------|
A:--2----------------------|
E:-0-----------------------|

Bm
You give me your smile
D
А piece of your heart
A G
You give me the feel I´ve been looking for
Bm
You give me your soul
D
Your innocent love
A G
You are the one I´ve been waiting for
Em F#
I´ve been waiting for

2nd Verse:
Bm D A G
e:--------2---------------5---------------0-----------------------
b:----2-------2-------5-------5-------2-------2----------3--------
G:---4--4---4----4---7--7---7----7---2--2---2----2---4-------4----
D:--4-----------4---7-----------7---2-----------2---5--5---5------
A:-2---------------5---------------0---------------5--------------
E:------------------------------------------------3---------------

Em F#m
E:-------------------------|
B:--------0----------------|
G:----0--------0--0--------|
D:---2--2-----2--2-4-------|
A:--2----------------------|
E:-0-----------------------|

Bm
We´re lost in a kiss
D
A moment in time
A
Forever young
G Em F#
Just forever, just forever in love

Chorus:

Gtr.1:
G Em G F#
e:-------------------------------------------------------
b:--------3---------------0---------------3--------------
G:----4-------4-------0-------0-------4-------4----------
D:---5--5---5----5---2--2---2----2---5--5---5----5-4-----
A:--5-----------5---2-----------2---5-----------5--------
E:-3---------------0---------------3---------------------

Gtr.2 (distortion): plays chords written in vocal part

Gtr.3 (distortion): (in original playing on keyboards)
G Em G F#
e:-------------------------2---3---3---------------2--------2-------
b:-------------3-------5---5---5---3---------------2----------2-----
G:---------4---4---4---4-----------4---------------3------------3---
D:-----5---5-------2---------------5---------------4--------------4-
A:-5---5------------------------------------------------------------
E:-3----------------------------------------------------------------

G
When you came into my life
Em
It took my breath away
G
Cause your love has found it´s way
F#
To my heart

Instrumental:
Gtr.1:
Bm
e:----------------------------
b:-----2---2---2-------2---3--
G:----4--4---4---4----4--4----
D:---4----4---4---4--4----4---
A:--2---------------2---------
E:----------------------------

Gtr.3:
Bm
e:------------------9------5---
b:------------------7------2---
G:-----------------------------
D:--4--------------------------
A:--2--------------------------
E:-----------------------------

3rd Verse:
Bm D A G
e:--------2---------------5---------------------------------------
b:----2-------2-------5-------5-------0-2-3-2-0------0---3---0----
G:---4--4---4----4---7--7---7----7---2----------2---2--2---2------
D:--4-----------4---7-----------7---2----------2---0--------------
A:-2---------------5---------------0------------------------------
E:------------------------------------------------3---------------

Bm D A G
E:--------2---------------5---------------------------------------
B:----2-------2-------5-------5-------0-2-3-2-0------0-3-0---0----
G:---4--4---4----4---7--7---7----7---2-------2--2---2-------2-----
D:--4-----------4---7-----------7---2--------------0-------0------
A:-2---------------5---------------0------------------------------
E:------------------------------------------------3---------------

Em F#m
E:-------------------------|
B:--------0----------------|
G:----0--------0--0--------|
D:---2--2-----2--2-4-------|
A:--2----------------------|
E:-0-----------------------|

Bm
You make me dream
D
By the look in your eyes
A G
You give me the feel, I´ve been longing for
Bm
I wanna give you my soul
D
All my life
G A
Cause you are the one I´ve been waiting for
Em F#
I´ve been waiting for so long

Chorus:

Gtr.1: x2
G Em G F#
e:-------------------------------------------------------
b:--------3---------------0---------------3--------------
G:----4-------4-------0-------0-------4-------4----------
D:---5--5---5----5---2--2---2----2---5--5---5----5-4-----
A:--5-----------5---2-----------2---5-----------5--------
E:-3---------------0---------------3---------------------

Gtr.2: plays chords written in vocal part

Gtr.3: x2
G Em G F#
e:-------------------------2---3---7---------------11---------------
b:-------------3-------5---5---5---8---------------11---------------
G:---------4---4---4---4-----------7---------------11---------------
D:-----5---5-------2---------------9---------------9----------------
A:-5---5------------------------------------------------------------
E:-3----------------------------------------------------------------

G
When you came into my life
Em
It took my breath away
G
And the world stopped turnin´ round
F#
For your love
G
When you came into my life
Em
It took my breath away
G
Cause your love has found it´s way
F#
To my heart

Solo:

Gtr.1:
Bm D A G
e:--------2---------------5---------------------------------------
b:----2-------2-------5-------5-------0-2-3-2-0------0---3---0----
G:---4--4---4----4---7--7---7----7---2----------2---2--2---2------
D:--4-----------4---7-----------7---2----------2---0--------------
A:-2---------------5---------------0------------------------------
E:------------------------------------------------3---------------

Bm D A G
E:--------2---------------5---------------------------------------
B:----2-------2-------5-------5-------0-2-3-2-0------0-3-0---0----
G:---4--4---4----4---7--7---7----7---2-------2--2---2-------2-----
D:--4-----------4---7-----------7---2--------------0-------0------
A:-2---------------5---------------0------------------------------
E:------------------------------------------------3---------------

Em F#m
E:-------------------------|
B:--------0----------------|
G:----0--------0--0--------|
D:---2--2-----2--2-4-------|
A:--2----------------------|
E:-0-----------------------|

Gtr.3: (acoustic)
Bm D A G
e:----------------------------------------------5---------------7--
b:------------------75-------------------------------------8------
G:---------------------7-7-----4-6-6/7-6-----------7----7----------
D:---------------------------7-------------------------------------
A:-----------------------------------------------------------------
E:-----------------------------------------------------------------

Bm D A G
E:6/7--------------------------5---5-------------------------------
B:-------2-2/3-2---5/7-5-------------878-757-5-5-------------------
G:-----4-----------------7-6-7----------------7--764---------------
D:---4-----------4---------------7---------------------------------
A:-----------------------------------------------------------------
E:-----------------------------------------------------------------

Em F#
E:-------555-323-202---2/32---|
B:----------------------------|
G:----------------------------|
D:----------------------------|
A:----------------------------|
E:----------------------------|

Bm
Into my heart
Em F#
Just forever in love

Log In to leave a comment

After registration we will return you to the same place
Comments
face-with-monocle
If you wait a bit, some comments may appear here...

Shhh...