Loading...
Scorpions logo

Believe In Love Scorpions

  • 0
  • Share
  • Transposing
    0
  • Font Size
Intro:
¦-----------------------------------------------------------------------¦
¦---4-6^8-6^(8)^6-------6------6--8-8^(9)--8---6^6------4-----4---6h8-6-¦
¦-5-----------------8-7----------------------------8--5---5-3-----------¦
¦-------------------------------------------------pm-----pm-------------¦
¦-----------------------------------------------------------------------¦
¦-----------------------------------------------------------------------¦
¦
¦Rhythm Guitar
¦-----------------------------------------------------------------¦
¦-5----------------------------------5-----------------8----------¦
¦-5----------------------------------5-----------5-----8----------¦
¦-5---------------8------8-----------5-----------6-----8--------8-¦
¦-3---------------8------8-----------3-----------6-----6--------8-¦
¦-----------------6------6-----------------------4--------------6-¦

¦--------------6---------------------------------------------------------¦
¦-------4--6^8---8-^-6-----6----6-8-8^(9)-8----6^6-------4-----4---6h8-6-¦
¦-5-5-5----------------8-7-------------------------8--5----5-3-----------¦
¦------------------------------------------------------------------------¦
¦------------------------------------------------------------------------¦
¦------------------------------------------------------------------------¦
¦
¦--------------------------------------------------------------¦
¦-5----------------------------5------------------8------------¦
¦-5----------------------------5-----------5------8------------¦
¦-5-------------8----8---------5-----------6------8----------8-¦
¦-3-------------8----8---------3-----------6------6----------8-¦
¦---------------6----6---------------------4-----------------6-¦

Cm G A# D# G# D# G G
-------3-|------3-|------6|--------|-------4-|-------|------3--|------3------
---------|--------|-------|------8-|---------|------8|--------3|--------6-64-
-----5---|----4---|-------|----8---|---------|----8--|---------|-------------
---5-----|--5-----|----8--|--8-----|----6----|--8----|----5----|----5--------
-3-------|5-------|--8----|6-------|--6------|6------|--5------|--5----------
---------|--------|6------|--------|4--------|-------|3--------|3------------
How does it feel babe to play sweet revenge do you want me on my knees...

Two guitars arranged to one:
-----4-------x-x-6-----------4-------x-x-6----------------4---6--6--------6-
-----4-------x-x-6-----------4-------x-x-6----------------4---6--6--------6-
-5---5-----7-x-x-7-------5---5-----7-x-x-7------------5---5---7--7--------7-
-6---6-----8-x-x-8-------6---6-----8-x-x-8------------6---6---8--8--------8-
-6---6-----8-x-x-8-------6---6-----8-x-x-8------------6---6---8--8--------8-
-4---4-----6-----6-------4---4-----6-----6------------4---4---6--6--------6-
if you.....now i can't... down just.... devil's... soul

*
-----------6--------3-3-x-3--3-3---3-3---3--------------6-
-----------6--------5-5-x-5--5-5---5-5-5-5--------------6-
-5---------7--------5-5-x-5--5-5---5-5-5-5-------5------7-
-6---------8--------5-5-x-5--5-5---5-5-5-5-------6------8-
-6---------8--------3-3-x-3--3-3---3-3-3-3-------6------8-
-4---------6-------------------------------------4------6-
..love babe..leave... way oh i miss you i miss you

-----------------------------------------------------------------------------
-8-----------------------5---------------------------8-----------------------
-8-----8-----------------5-----5---------------------7---------8------5----7-
-8-----8-----------------5-----6---------------------8---------8-----6----8--
-6-----8-----------------3-----6---------------------8---------6----6----8---
-------6-----------------------4---------------------6-------------4----6----
Babe our love's got what it takes to give us one more chance to start once again

Log In to leave a comment

After registration we will return you to the same place
Comments
face-with-monocle
If you wait a bit, some comments may appear here...

Shhh...

Most Popular
You Might Like