Satyricon logo

Skyggedans Satyricon

  • 0
  • Share
  • Font Size
Satyricon – Skyggedans
H=Hammer-on
P=pull-off
/=slide
...=tremelo
Pm=palm mute

Riff 1a } x2
[-----------------------------------------
-----------------------------------------

--2--2------3--6----2--2------3--6-3-6---
--2----2----3--6----2----2----3--6-3-6---
--0------0--1--4----0------0--1--4-1-4---]

Riff 1b } x2
[-----------------------------------------

----0----------------0-------------------
--2---2----3--6----2---2------3--6-3-6---
--2-----2--3--6----2-----2----3--6-3-6---
--0--------1--4----0-------0--1--4-1-4---]

Riff 3 } x6
[----------------------------------------------
----------------------------------------------

-----4-5-4-----4-5-4-3-----4-5-4--2--2--3--5--
--2--2-3-2--2--2-3-2-1--2--2-3-2--2--2--3--5--
--0---------0-----------0---------0--0--1--3--]

Riff 4 (listen for the strumming) } x8
[-------------------------------
-------------------------------

--2-2-2---5-5-5--4-4-4-4-4-4---
--2-2-2---5-5-5--4-4-4-4-4-4---
--0-0-0---3-3-3--2-2-2-2-2-2---]

Acoustic part
[---------------------------------------------------
---------------------------------------------------

------10------10------9-----9-----10-----10-----6--
----0-------0-------0-----0-----0------0------0----
--0-------0-------0-----0-----0------0------0------]

Chord hit
[----

--6--
--6--
--4--
-----]

Riff 5a } x8
[--------------------------------
--------------------------------

---7-7--8/7-7/8--10-10--7/8--8--
---5-5--6/5-5/6---8--8--5/6--6--
--------------------------------]

Riff 5b(slight change)
[-----------------------------------
-----------------------------------
-----------------------------------

---7-7--8/7-7/8--10-10--7/8--8/10--
---5-5--6/5-5/6---8--8--5/6--6/8---]

Riff 6 } x4
[------------------------------------------------------------------------
------------------------------------------------------------------------

---7--8-8--7-7--6-6--7-7--8-8--7-7--6-6--7-7--6-6--7-7--8-8-1010/8-7/8--
---5--6-6--5-5--4-4--5-5--6-6--5-5--4-4--5-5--4-4--5-5--6-6--8-8/6-5/6--
------------------------------------------------------------------------]

Riff 7 } x4
(I can only really hear the keyboard here so I'll assume the guitar immitates it)
[--------------------------------------------------------------
--------------------------------------------------------------

--2-2--5-3--6-3---2-2--5-3--6-3---2-2--5-3--6-3---2--2--3--5--
--2-2--5-3--6-3---2-2--5-3--6-3---2-2--5-3--6-3---2--2--3--5--
--0-0--3-1--4-1---0-0--3-1--4-1---0-0--3-1--4-1---0--0--1--3--]

Log In to leave a comment

After registration we will return you to the same place
Comments
face-with-monocle
If you wait a bit, some comments may appear here...

Shhh...