Loading...
Satriani Joe logo

The Forgotten Part 2 Satriani Joe

  • 0
  • Share
  • Transposing
    0
  • Font Size
Band:Joe Satriani
Song:The forgotten (part 2)
Author:Оguz ilkturk
E-mail:[email protected]

F О R G О T T E N
///// //// //// //// ////// //// ///// ////
/ // / / // // // / / / // //
//// //// // // // //// ///// //
/ // / / // // // / / / // //
///// / / ///// ///// // / / ////// /////

(1)
G|---------------------------------|
D|---------------------------------|
A|-3--3-3--3--3-3---3--3-3---3--3-3|
E|---------------------------------|
8 DEFA

(2) (3)
G|--------------------|----------|
D|--------------------|----------|
A|----------------1-1-|-3--3-3---|
E|-1--1-1--1--1-1-----|----------|

(1) x 2 Times
(2) x 1 Times
(3) x 5 times

Guitar Solo

G|-------------------------------------------------------------------
D|-------------------------------------------------------------------
A|-5--5-5--5--3--3-----------------3--3-3--3---1--1-1--1-------------
E|------------------5--3--1-1-1--1-----------------------5--5-5--3-1-

-------------------------------------------------------------------
-------------------------------------------------------------------
----------3--3-3--3--1--1-1--1------------------3--3-3--3----------
-1-1--1----------------------5--5-5--3-1-1-1--1--------------------

----------------------------------|
----------------------------------|
-5--5-5--5--5-5--3--3-3--3--3-3-3-| (4)
----------------------------------|

G|-----------------------------------|
D|-----------------------------------|
A|-3--3-3-3-------------1--1---3--3-3| (5) 4
E|---------1--1-1-1--1---------------|

(4) x 1 times
(5) x 4 times

Guitar solo finished and Then

(1) x 2 times
(2) x 1 times
(3) x 5 times

Log In to leave a comment

After registration we will return you to the same place
Comments
face-with-monocle
If you wait a bit, some comments may appear here...

Shhh...