Satanic Surfers logo

Miss Bigmouth Satanic Surfers

  • 0
  • Share
  • Transposing
    0
  • Font Size
    15
Satanic Surfers – Miss Bigmouth
-------------------------------------------------------------------------------
MISS BIGMOUTH - Satanic Surfers
-------------------------------------------------------------------------------

BY: EMILIO GUINEA E-mail: igonzale@pie.xtec.es

INTRO: G, Eii, D
E |------------------5--9/10--
B |-----------5-7-8-----------
G |------5-7------------------
D |-5-7-----------------------
A |---------------------------
E |---------------------------

GUITAR1: C, Gii, Eii, D-F#ii- D GUITAR2: C, Gii-Bii-Dii, Eii, D-F#ii- D
C, D-F#ii C, D-F#ii
Gii, Eii, D-F#ii- D Gii-Bii-Dii, Eii, D-F#ii- D
C-D-F#ii- D C-D-F#ii- D
Gii, C, D Gii, C, D
C-D-F#ii- D C-D-F#ii- D

VERSE:

Gii, C, D, C, G, C, D
C-D-F#ii- D
(REPEAT)

CHORUS:
Eii, D, Gii
D, Eii, C, D

SKA-RIFF:

GUITAR1:

E |---------------------------*--8--8-*-*--*-10-10-*-*--
B |-*-12-12-*-*---------------*--8--8-*-*--*-10-10-*-*--
G |-*-12-12-*-*---------------*--9--9-*-*--*-11-11-*-*--
D |-*-12-12-*-*--9-9-9-10-12--*-10-10-*-*--*-12-12-*-*--
A |-*-10-10-*-*---------------*-10-10-*-*--*-12-12-*-*--
E |---------------------------*--8--8-*-*--*-10-10-*-*--

(REPEAT (x4))

GUITAR2:
E |-----------------------------------------
B |-----------------------------------------
G |-----------------------------------------
D |--------9-9-10-12------------------------
A |-10-10-------------------------9---------
E |--------------------8-8-10-10-----10-----

(REPEAT THE FIG ABOVE (x2))
E |-----------------------------------------
B |-----------------------------------12----
G |-------------------------11-11-11--------
D |--------9-9-10-12-14-14------------------
A |-10-10-----------------------------------
E |-----------------------------------------

E |---------------------12-12--14-14-14-19--
B |--------12-12-13-15----------------------
G |-12-12-----------------------------------
D |-----------------------------------------
A |-----------------------------------------
E |-----------------------------------------

RIFF1:

GUITAR1: G, A#- A-G# (x2)

GUITAR2: Gii_______
G_________

BOTH GUITARS:

G, A#- A-G# (x2)

SOLO: G, A#- A-G# (x2)

E |-20~--20p18-20p18-20p18-20p18-20p18-19p18--
B |-------------------------------------------
G |-------------------------------------------
D |-------------------------------------------
A |-------------------------------------------
E |-------------------------------------------

E |-20~--20p19p18--------------
B |----------------------------
G |-----------------15-14-12---
D |----------------------------
A |----------------------------
E |----------------------------

RIFF2:

GUITAR1: G, Eii, D-F#ii-D, C-D-F#ii- D
Gii, Eii, D-F#ii- D
C-D-F#ii- D

GUITAR2: Gii-Bii-Dii, Eii, D-F#ii-D, C-D-F#ii- D
Gii-Bii-Dii, Eii, D-F#ii- D
C-D-F#ii- D

VERSE2: C, Gii-F#ii- D
F#ii-Gii, C-D
Eii, C, D
C, Gii-F#ii- D

OUTRO:

GUITAR1: Gii, Eii, D-F#ii-D, C-D-F#ii- D
Gii

GUITAR2: Gii-Bii-Dii, Eii, D-F#ii, C, F#ii
G

============================================================================

Log In to leave a comment

After registration we will return you to the same place
Comments
face-with-monocle
If you wait a bit, some comments may appear here...

Shhh...