Loading...
Satanic Surfers logo

Got To Throw Up Satanic Surfers

  • 0
  • Share
  • Transposing
    0
  • Font Size
-------------------------------------------------------------------------------
GOT TO THROW UP - Satanic Surfers
-------------------------------------------------------------------------------

By: Thomas Eilander: [email protected]

Thirst chord: E - then intro

Intro:
G------------------0------------------------0------------7---------]
D---5---------9--7-----------5---------9--7-----5------9---9--7----]
A-7---7--5--7-------5------7---7--5--7--------7---7--5----------9-7]
E---------------------3--5-----------------------------------------]

Play this two times, after the 2nd time the two chords Eii and F#ii and
Then the fast handpalmmuting part as follow:

E|--7-9-------------5-7---------------------7-9-------------| Now play the
B|--7-9-------------5-7---------------------7-9-------------| powerchords
G|--7-9--------0----5-7-----------4--7--4---7-9--------0----|
D|--7-9---9--7------5-7---4--5--7-----------7-9---9--7------| G B A# A
A|--7---------------5-----------------------7---------------|
E|----------------------------------------------------------|
Eii D Eii

This whole thing two times with fast muting on the Eii and D chords.

Eii B
We spend eight hours on the road
C D Eii
Just to put up a shitty show
B
Few appreciate
C D Eii
We play our set and go...
A B
...to where ever it is that we're
Eii D B A G
Gonna stay tonight

Eii D B A G
And now that the tension is gone
A# A G
We laugh at our mistakes
A# A G
Let go of the breaks
A# A G Eii
Have a few bears and re lax
A# A G Eii
Have a few bears with our friens

Brigde2: Eii D Eii G B A# A

Eii B
We bring some friends and our gear in the van
C D Eii
That's why were always too late
B
Lucifer doesn't go too fast
C D Eii
And we're not always feeling so great
C D
5 cups of coffee, 1 or 2 beers
Eii A G A
Then I'm in shape for an intense shit-break
C D Eii
Before I can go up on stage

Play the intro again but now one time.

Coffee drinking, always stinking

Still brings out the best in me

The smelly farts, the crapy jokes

The stomacheases, headaches

The laughs and the........

Play the handpalmmuting part over the lyrics above and improve with the solo.
========================================================================

Log In to leave a comment

After registration we will return you to the same place
Comments
face-with-monocle
If you wait a bit, some comments may appear here...

Shhh...