Loading...
Samhain logo

Descent Samhain

  • 0
  • Share
  • Transposing
    0
  • Font Size
			tabbed by amidemn138
played by samhain
song: descent

This doesn't represent the exact duration or
Amount each note is hit. Listen to the cd,
And you'll pick it up. Any questions, feel
Free to write me at [email protected]
---
Standard tuning

Descent
=======

G -------------------------------------------
D -------------------------------------------
A --0-0------------1-------------------------
E ------4-4--3-3-3---------------------------

each note is struck 16 times
G ---------------------------------------------
D -----0--1--4---------------------------------
A --3------------------------------------------
E ---------------------------------------------

G --------------------------------------------------
D --------------------------------------------------
A --3-3-3-3---------1-1-1-1-------------------------
E ----------3-3-3-3---------1-1-1-1--0-0-0-0--------

G ---------------------------
D ---------------------------
A ---------------------------
E --0-0-0--0-0-0--0-0-0------

Log In to leave a comment

After registration we will return you to the same place
Comments
face-with-monocle
If you wait a bit, some comments may appear here...

Shhh...