Sabaton logo

Metal Machine Sabaton

  • 1
  • Share
  • Transposing
    0
  • Font Size
Sabaton – Metal Machine
Intro:
E|-------------------------------------------|
B|-------------------------------------------|
G|--7--6--4--444--7--7--6--4-----------------|
D|----------------------------7-------5----7-|
A|-------------------------------------------|
E|-------------------------------------------|

|-------------------------------------------------|
|----------------7--7--5-----5----5-7-7-7-7-8-7-5-|
|--7--6--4--444-----------7------7----------------|
|-------------------------------------------------|
|-------------------------------------------------|
|-------------------------------------------------|

|--------------------------|
|--------------------------|
|----4--444--7--7--6--4----|
|------------------------7-|
|--------------------------|
|--------------------------|

|----------------------------7-9-10-10-10--14--14-12-|
|----------------------7-8-9-------------------------|
|------------------7-9-------------------------------|
|--------------7-9-----------------------------------|
|-------7-9-10---------------------------------------|
|7-9-10----------------------------------------------|

Bm
G D A }x2

Bm
I have a phobia
Bm
A fear of the dark
Bm
Afraid to shoot strangers
G D A
The animal talks

Bm
Guns scare me shitless
Bm
But love gun's my friend
G
The sentinel's coming
D A
But is this the end

G
Riding on this crazy train
A
I'm going paranoid
G
Watch me lose my mind
A
And break the law

Bm
I'm a metal machine
G
It's close to midnight and
D A
He's barking at the moon
Bm
I'm a metal machine
G D A
The rainbow in the dark is shining

Bm
I'm only metal machine
G
It's close to midnight and
D A
He's barking at the moon
Bm
I'm a metal machine
G D A
The kings of metal ride the sky

Bm
Is this st. anger
Bm
The ultimate sin
G
Or have I really
D A
A black knight within

G
The gates of Babylon
A
Are open and wide
G
Shout at the devil
A
There's nowhere to hide

G
Fighting for the world to keep
A
The wild child in it's cage
G
Broke my metal heart
A
Against the wall

Bm
I'm a metal machine
G
It's close to midnight and
D A
He's barking at the moon
Bm
I'm a metal machine
G D A
The rainbow in the dark is shining

Bm | G D A }4
Bm | G Em D A
Bm | G D A }x4

Bm
I'm a metal machine
G
It's close to midnight and
D A
He's barking at the moon
Bm
I'm only metal machine
G D A
The rainbow in the dark is shining

Bm
I'm a metal machine
G
It's close to midnight and
D A
He's barking at the moon
Bm
Come touch my metal machine
G D A
The kings of metal ride the sky

C#m
I'm a metal machine
A
It's close to midnight and
E B
He's barking at the moon
C#m
I'm only metal machine
A E B
The rainbow in the dark is shining

Bm
I'm a metal machine
G
It's close to midnight and
D A
He's barking at the moon
Bm
I'm a metal machine
G D A
The rainbow in the dark is shining

Log In to leave a comment

After registration we will return you to the same place
Comments
face-with-monocle
If you wait a bit, some comments may appear here...

Shhh...