Rolling Stones logo

Ventilator Blues Rolling Stones

  • 2
  • Share
  • Font Size
    15
Rolling Stones – Ventilator Blues
It can be played in standard tuning or 5-string open G:

E|----------------------|
B|----------------------|
G|-----0-0-X-3-X--0---0-|
D|-----0-0-X-3-X--0-3-0-|
A|---1------------------|
E|-3--------------------|

D|----------------------|
B|----------------------|
G|-----0-0-X-3-X--0---0-|
D|-----0-0-X-3-X--0-3-0-|
G|-0-3------------------|
D|----------------------|

Log In to leave a comment

After registration we will return you to the same place
Comments
face-with-monocle
If you wait a bit, some comments may appear here...

Shhh...