Rivermaya logo

Wag Na Init Ulo Baby Rivermaya

  • 0
  • Share
  • Transposing
    0
  • Font Size
Rivermaya – Wag Na Init Ulo Baby
It’s  a really easy song once you get the hang of it.
Medyo iniba ko yung pattern nung riff pero astig yan.
Kailangan lang talaga nang konting practice, pakinggan
Niyo na rin yung kanta para masundan niyo ok..
RIVERMAYA ROCKS!!!! Wuszupp nga pala sa Valet Parking!
Kina Ralf, Dax, Jappee, Kenmar at Greggy

WAG NA INIT ULO BABY – River Maya
Transcribed by: Ralf Cute

BASS INTRO: Riff A

E--------------------------------------------------|
B--------------------------------------------------|
G--------------------------------------------------|
D-----5--------4h5-5s7—5/4-------------------------|
A----5---5h7--5-----—------5/3--5-3—3/5-----—------|
E—-------------------------------------------------|

MAIN RIFF (use your ring finger and pinkie)

E--3-3-3-3-----------------------------------------|
B--3-3-3-3----5-5-5-5------------------------------|
G--1-1-1-1----4-4-4-4----4-4-4-4----5-5-5-5--------|
D--1-1-1-1----3-3-3-3----4-4-4-4----5-5-5-5--------|
A--1-1-1-1----3-3-3-3----2-2-2-2----3-3-3-3--------|
E—-1-1-1-1----3-3-3-3----2-2-2-2----3-3-3-3--------|

2nd RIFF (Refrain) > (chord pattern: C5 G5 A5 D5)

E-3-3-3-3-3----3-3-3-3-3----5-5-5-5-5----5-5-5-5-5-|
B-3-3-3-3-3----3-3-3-3-3----5-5-5-5-5----5-5-5-5-5-|
G-5-5-5-5-5----3-3-3-3-3----5-5-5-5-5----7-7-7-7-7-|
D-5-5-5-5-5----5-5-5-5-5----7-7-7-7-7----7-7-7-7-7-|
A-3-3-3-3-3----5-5-5-5-5----7-7-7-7-7----5-5-5-5-5-|
E—x-x-x-x-x----3-3-3-3-3----5-5-5-5-5----x-x-x-x-x-|

MAIN RIFF - 2nd RIFF (Chorus)*

WAG NA INIT ULO BABY - RIVER MAYA

Malapit na akong matunaw, Sa init ng iyong ulo
Muntikan pa akong masugatan, Sa talas ng pagtitig mo
>Pumapangit ka na naman easy nakakahawa yan ako’y nakikiusap lang

*
Wag na init ulo baby, dingin mo please payong ito
Inom tubig nood ng TV, Gaan bigla problema mo...

Hindi naman kinakailangan ang ngumiting agad-agad
Tsaka na tayo magpalitan ng I love you I swear to God
>Alam na natin yun diba naubos nang mga tala ako’y nandito lang sinta

(Hi GirlFriend ko… Miss na kita… Hello rin sa mga taga FAM nang UST COMMERCE student)

Log In to leave a comment

After registration we will return you to the same place
Comments
face-with-monocle
If you wait a bit, some comments may appear here...

Shhh...

Most Popular
You Might Like