Loading...
Rhomb Frenzal logo

Rats In The Walls Rhomb Frenzal

  • 0
  • Share
  • Transposing
    0
  • Font Size
#-----------------------------------------------------------------------------#
#-----------------------------------------------------------------------------#

Author/Artist: Frenzal Rhomb
Title: Rats in the walls
Album: Shut your mouth
Transcribed by: Luke Lundberg
Email: [email protected]

I have seen no tabs for anything off shut your mouth. my guitar teacher helped m
E out wit some of this. thanks Gabe.
I will only include the chords, u can work out the rythm yaself ok

-0----------------------------------------------------------------------------
---0-5-7--5-7--9-10-9-7---5-0-5-7-0--5-5-4-4-2-2---------0-5-0-7-5-7-7-9-9----
-------------------------------------------------4-2-1------------------------
------------------------------------------------------------------------------
------------------------------------------------------------------------------
------------------------------------------------------------------------------

------------------------------------------------------------------------------
-10-9--5-0-5-7----------------------------------------------------------------
------------------------------------------------------------------------------
----------------2-------------------------------------------------------------
----------------2-------------------------------------------------------------
----------------0-------------------------------------------------------------

------------------------------------------------------------------------------
------------------------------------------------------------------------------
----3-4--7--------------------------------------------------------------------
-2--3-4--7--7--7-6-4-2--------------------------------------------------------
-2--1-2--5--7--7-6-4-2--------------------------------------------------------
-0----------5--5-4-2-0--------------------------------------------------------
hey, there believers.... repeat 1 more time

------------------------------------------------------------------------------
------------------------------------------------------------------------------
-4--6-------------------------------------------------------------------------
-4--6--7----------------------------------------------------------------------
-2--4--7----------------------------------------------------------------------
-------5----------------------------------------------------------------------
but i can't see who is watching over me...

-0----------------------------------------------------------------------------
---0-5-7--5-7-7-9-9-10-9-7--5-0-5-7-------------------------------------------
------------------------------------------------------------------------------
--------------------------------------2---------------------------------------
--------------------------------------2---------------------------------------
--------------------------------------0---------------------------------------
bit before second verse.

------------------------------------------------------------------------------
------------------------------------------------------------------------------
----3-4--7--------------------------------------------------------------------
-2--3-4--7-7---7-6-4-2--------------------------------------------------------
-2--1-2--5-7---7-6-4-2--------------------------------------------------------
-0---------5---5-4-2-0--------------------------------------------------------
my revelation,was nothing good.... repeat one more time

------------------------------------------------------------------------------
------------------------------------------------------------------------------
-4--6-------------------------------------------------------------------------
-4--6--7----------------------------------------------------------------------
-2--4--7----------------------------------------------------------------------
-------5----------------------------------------------------------------------
but wait and see i am....

------------------------------------------------------------------------------
------------------------------------------------------------------------------
---4----2----4--9-----4----2----4---------------------------------------------
-2-4--2-2--2-4--9---2-4--2-2--2-4-2-------------------------------------------
-2-2--2-0--2-2--7---2-2--2-0--2-2-2-------------------------------------------
-0----0----0--------0----0----0---0-------------------------------------------
well don't pick me up... you could play A5 of the e string aswell.

------------------------------------------------------------------------------
------------------------------------------------------------------------------
----6-----4-------------------------------------------------------------------
-4--6--2--4-------------------------------------------------------------------
-4--4--2--2-------------------------------------------------------------------
-2-----0----------------------------------------------------------------------
something, something, and the rats in the walls.... i ain't sure of the C5

------------------------------------------------------------------------------
------------------------------------------------------------------------------
------------------------------------------------------------------------------
------------------------------------------------------------------------------
------------------------------------------------------------------------------
------------------------------------------------------------------------------
chord.aftr that go bak to intro-chorus-thing above-chorus and i'm spent!

Log In to leave a comment

After registration we will return you to the same place
Comments
face-with-monocle
If you wait a bit, some comments may appear here...

Shhh...

Most Popular