Rhapsody logo

Forest Of Unicorns Rhapsody

  • 1
  • Share
  • Transposing
    0
  • Font Size
    15
Rhapsody – Forest Of Unicorns
FOREST OF UNICORNS (Rhapsody)

Tabbed by Spyros Soldatos lordovol@mailbox.gr

    Gm        Dm        C          Gm        G#           Gm
 Intro.............................................................
||--3---5-6-|-1-------|-0--0-1-3-|-3---3-6-|-4----6-4---|-3--------|
||*-3-------|-3--3-3--|-1--------|-3-------|-4--------4-|-3----4-3-|
||--3-------|-2-------|-0--------|-3-------|-5----------|-3--------|
||--5-------|-0-------|-2--------|-5-------|-6----------|-5--------|
||*-5-------|---------|-3--------|-5-------|-6----------|-5--------|
||--3-------|---------|----------|-3-------|-4----------|-3--------|

 Fm        Gm
 .......................
|-1---1--4-|-3---------||
|-1--------|-3--------*||
|-1--------|-3---------||
|-3--------|-5---------||
|-3--------|-5--------*||
|-1--------|-3---------||

 Gm       Dm           C                 Gm
Run holy beloved horse on this peaceful day
G#                       Gm                Fm               Gm
  Through these valleys kissed by light, where peace is so rare

So hardy trees let me hear your words about those memories
Please tell me all about our hold and epic battles they won

   Gm     Fm      Gm              Fm        Gm
Beware of unholy fire my guardian of the trees
        Gm                   Fm           Gm    Fm      Dm
Their flames can't burn the memories the wisdom of the kings
     Gm     Fm       Gm                Fm  Gm
The secrets of this forest the ride of unicorns
      Gm                Fm             Gm    Fm         Dm
Are treasures of these valleys where freedom has its throne
       Gm               Fm        Gm     Fm       Gm
Where love must reign eternally avoiding acts of war

We must have all their valor to defend these lands
Or the sun in these valleys will not shine again

Beware of unholy...

   A#m    G#m     A#m             G#m      A#m
Beware of unholy fire my guardian of the trees

A#m    G#m     A#m   G#m     Fm

     A#m    G#m      A#m               G#m A#m
The secrets of this forest the ride of unicorns

A#m    G#m     A#m   G#m     Fm

A#m    G#m      A#m   G#m     Fm

A#m

Log In to leave a comment

After registration we will return you to the same place
Comments
face-with-monocle
If you wait a bit, some comments may appear here...

Shhh...