Loading...
Rhapsody logo

Beyond The Gates Of Infinity Rhapsody

  • 0
  • Share
  • Transposing
    0
  • Font Size

* RHAPSODY - BEYOND THE GATES OF INFINITY (From the album: SYMPHONY OF ENCHANTED LANDS *

Music & Words by: Alex Staropoli/Luca Turilli

Transcribed By: Niclas Buss
Day Upgraded: 19-21.6.2001
Email: [email protected]

------------------------------

Normal Tuning!!!

E-----------------------------------------------------------------------------------|
B--Orchestra-&-SFX--|---------------------------------------------------------------|
G-------Intro-------|--8-8-------8-8------8-8~-----------------------------------|
D-----(33-sec.)-----|--8-8-------8-8------8-8~---8-8-----8----8-8--8-8---8~~|
A-------------------|--6-6-------6-6------6-6~---8-8-----8----8-8--8-8---8~~|
E---------------------------------------------------6-6-----6----6-6--6-6---6~~|

E-----------------------------------------------------------------------------------|
B-----------------------------------------------------------------------------------|
G-----------------------------------------------------------------------------------|
D~----8-8---------8-----6-----9-------8-----8-----6------------8-----9-----9-------8|
A~----8-8---/-6-6---9-9---8-8---6-6-6---9-9---8-8---8-96--6-6---6-6---8-8---6-6-6--|
E~----6-6---------------------------------------------------------------------------|

E-----------------------------------------------------------------------------------|
B-----------------------------------------------------------------------------------|
G-----------------------------------------------------------------------------------|
D-----8-----6-----------------------------------------------------------------------|
A-9-9---8-8---8-96--------8-----6-----7---96-----8-----6-----96-8---------8-----6|
E---------------------6-6---9-9---8-8---8-----6-6---9-9---8-8-------9---6-6---9-9--|

E-----------------------------------------Gtr.2:---Trem.bar---------------------|
B---------------------------------------------------dive-----------------------|
G---------------------------------------------------------/10-9--------------|
D---------------------------------------3--3--------------------7h8-7--------|
A-----7---96-----8-----6-----96-8-----3--3-----3-------------------5-/9-8-|
E-8-8---8-----6-6---8-8---8-8-------9---1--1-----1-----------------------------|

Guitar 1
E-----------------------------------------------------------------|-----------------|
B-----------------------------------------------------------------|-----------------|
G-----------------------------------------------------------------|-8-7-5-8-7-5-8-7-|
D-----------------------------------------------------------------|-----------------|
A--------------------5-------------------------------------5------|-----------------|
E-5-6-8-5~-8-8-8-8-7---8-7-5~-8-8-8-8-74-5-7-5~-8-8-8-8-7---8-7--|-----------------|
pm..............| pm..............| pm..............| | Guitar 2 |
E|-----------------|
B|-----------------|
G|-----------------|
D|-----------------|
A|-6-5-3-6-5-3-6-5-|
E|-----------------|

Riff 1 x2 end
E-------------------------------------------------------------------|---------------|
B-------------------------------------------------------------------|---------------|
G*-----5--4-7-5-4-----5--4-----4-----5--4-7-5-4-/-8-7-5-8-7-5-8-7--*|--8-7-5-8-7-5-8|
D*--7--------------7-------6-7----7--------------------------------*|---------------|
A-------------------------------------------------------------------|---------------|
E-------------------------------------------------------------------|---------------|
| |
E-------------------------------------------------------------------|---------------|
B-------------------------------------------------------------------|---------------|
G*-----------------------------------------------------------------*|---------------|
D*-----------------------------------------------------------------*|---------------|
A------3--2-5-3-2-----3--2-----2-----3--2-5-3-2-/-6-5-3-6-5-3-6-5---|--6-5-3-6-5-3-6|
E---5--------------5-------4-5----5---------------------------------|---------------|

Riff 1 Verse 1
E----------||--Clean-Sound:--------0---------5~-------------------------------------|
B----------||----Guitar----------6--------------------------------------4h5--------5|
G-7--------||------------------7------7----------------4h6----6~------6--------6----|
D--~8~~---||----------------0----------7~--------------------7~-------------6---6--|
A----------||--------------------------------------0~---------------4---------------|
E------~---||-----------------------------------------------------------------------|
|| |
E----------||--Nylon-Guitar:-------0----------------------------------------------4-|
B----------||--------------------6-----------6---------------------4h5----------5---|
G----------||------------------7------7-------------------6---7-9------6------6-----|
D----------||----------------0-------------------------7----7------------6----------|
A-5--------||--------------------------------------0~----------------------4--------|
E---6~~---||-----------------------------------------------------------------------|

E-----------------------------2(-------------------------------------------------10-|
B-----------------------------2)---5~-------5p4------5---------7(--/--10)-----10----|
G-----6-------6---------------2(----------------6----6----7(---7)--/--11(--11-------|
D-------8-------9-8-6------4--4)----------6----------6----7)---7(--/--12)-----------|
A--6------------------9----4-----------/4-----------------5(------------------------|
E--------------------------2--------------------------------------------------------|
|
E-3---4---6~-/9-7-6-----------------------------------------------------------7-----|
B---4---4-----------9-7----7--5--5-----------------5------------------------5----5--|
G---------------------------------6----------6------------------7---/--11-----------|
D----------------------------------6--------------------------7---------------------|
A-----------------------------------7---4-----------------5-------------------------|
E-----------------------------------------------------------------------------------|

Bridge
E /14~-------------------------------|-----------------------------------------------|
B-----------------------------------|-----------------------------------------------|
G------5----------5-----------------|--5----8--------------8-----------------------5|
D------6----------6-----------------|--5----8----6---------8----------7------------5|
A------6----------6-----------------|--3----6----6---------6----------7------------3|
E------4----------4--------2~--0~--|------------4--------------------5-------------|
| |
E---------4---5-4h5p4---5-----------|-----------------------------------------------|
B-------7---7---------7-------------|------------9--11-12--11---------11~--12-14--13|
G-----6-----------------------------|--5----8------------------11-----11~-----------|
D--------------------------4~--2---|--5----8---------------------13----------------|
A-----------------------------------|--3----6---------------------------------------|
E-----------------------------------|-----------------------------------------------|

Verse 2
E---------------------------|-------------------------------------------------------|
B---------------------------|----------|--------------------------------------------|
G---------10----------9~~---|--Riff-1--|--------------------------------------------|
D---------10----------10~---|----------|--------------------------------------------|
A----------8----------7~----|----------|--5-5-5-5-5-5-5-5--5-5-5-5-5-5--8~-5~-------|
E---------------------------|-------------------------------------------------5~--5-|
| pm...........................| pm
E----------13---------15~---||
B~-15-17-------13-----------||
G-----------------14--------||
D---------------------------||
A---------------------------||
E---------------------------||

E-----------------------------------------------------------------------------------|
B------------------------------------------------------------- A. H.------------------|
G---------------------------------------------------------------6~------------------|
D----------------------------/7~-----------------------------------6~---------------|
A--------------------------------7~-----/4--4-4-4--4-4-4-4-4-4--------4~-/-6--6-6-6-|
E-5-5-5-5-5-5-5--5-5-5-5-5-5--------9~----------------------------------------------|
...........................| pm....................| pm........

E-----------------------------------------------------------------------------------|
B------------- A. H.------------------------------------------------------------------|
G--------------8~-------------------------------------------------------------------|
D---8---9---6-----8~----------------------------------------------------------------|
A-6---6---6----------6~----------------------------------2~-4~--/4--4-4-4--4-4-4--4-|
E------------------------2--2-2-2--2-2-2--2-2-2--2-2/5~----------------------------|
..| pm pm pm...........................| pm...................

E-----------------------------------------------------------------------------------|
B-----------------------------------------------------------------------------------|
G-----------------------------------------------------------------------------------|
D----------6~----------------------------------------------7-7---------7-7--7-----7-|
A-4-4--4-4----7~-4~--/-5-5-5-5--5-5--5-5-5-5--5-5--5-5-5-5-----5-5-5-5--------------|
E-----------------------------------------------------------------------------4-4---|
.........| pm...................................| pm......| pm..|

Riff 2
E-----------------------------------------------------------------------------------|
B--------------------------|----------|---------------------------------------------|
G--------------------------|--Bridge--|---------------------------------------------|
D-----7---6-----4---- A. H.--|----------|----------------------/4--4-4----------------|
A---------------------7~---|----------|--5--5-5-4-4-----4-4---------7-7-5-4---4-/-5|
E-4-4---4---4-4---4-4--------------------------------7-7---------------------7------|
pm..| pm pm..| pm.. pm..........................................

E-----------------------------------------------------------------------------------|
B-----------------------------------------------------------------------------------|
G-----------------------------------------------------------------------------------|
D-------------------------------------------------------------/4--4-4---------------|
A-5-5-4-4-----4-4-------------------2-/--5--5-5-4-4------4-4---------7-7-5-4---4-/-|
E----------7-7-----5--5-5-4-4-2-4-5------------------7-7---------------------7-----|
...................................................................................

Guitar 1 Chorus (2)
E----------------------|-----------------------------|------------------------------|
B----------------------|-----------------------------|------------------------------|
G----------------------|-----------------------------|------------------------------|
D----------------------|--3-----6---------6-/-9--6--|------------------------------|
A-5--5-5-4-4-----4-4--|-----------4-/-8-------------|------------------------------|
E-------------7-7------|-----4-----------------------|--2~-1~--2~-1~--/-5~-4~--5~-4~|
....................| | Guitar 2 | |
E|-----------------------------|------------------------------|
B|-----------------------------|------------------------------|
G|---------------6--4-/-7--4--|------------------------------|
D|--3-----6--------------------|------------------------------|
A|-----------8-----------------|------------------------------|
E|-----4-----------------------|--2~-1~--2~-1~--/-5~-4~--5~-4~|

Guit
E--------------------------------------------------------------|--------------|-----|
B--------------------------------------------------------------|--------------|-----|
G----------------/6-----5-----------7--------------------------|--Orchestra---|*----|
D--------------------6-----4~~-----7-----7----8----7~~-------|--------------|*----|
A-----------------------------------5-----7----8----7~~-------|--------------|-----|
E-2~-1~--2~-1~---------------------------5----6----5~~-------|--------------|---1~|
| | |
E--------------------------------------------------------------|--------------|-----|
B--------------------------------------------------------------|--------------|-----|
G-----------------------------------7--------------------------|--Orchestra---|*----|
D-----------------------7-----------7-----7----8----7~~-------|--------------|*----|
A----------------/9--7-----6~~-----5-----7----8----7~~-------|--------------|-----|
E2~-1~-/-5~-4~---------------------------5----6----5~~-------|--------------|---1~|
_____________ ________________________ _________________
ars enter at (3:39) |1.3. |2. |4. |
E----------------------|-------------|------------------------|-----------------||--|
B----------------------|-------------|------------------------|-----------------||--|
G----------------------|------------*|-----------------------*|-----------------||-/|
D----------------------|------/-5~--*|----------/-5~---------*|----------/-5~~--||--|
A------- /2-3~----------|------/-3~---|----------/-3~----------|----------/-3~~--||--|
E--3-4~--------3~--6~--|--4~--/-3~---|--4-/-6~--/-3~--/20--|--4-/-6---/-3~~--||--|
| | | ||
E----------------------|-------------|------------------------|-----------------||
B----------------------|-------------|------------------------|-----------------||
G----------------------|------------*|------------------------|-----------------||
D----------------------|------/-5~--*|----------/-5~----------|---------/-5~~---||
A------- /2-3~----------|------/-3~---|----------/-3~----------|---------/-3~~---||
E--3-4~--------3~--6~--|--4~--/-3~---|-4-/-6~---/-3~--/20--|--4-/-6--/-3~~---||

Orchestra Riff arraged for Guit
E--------------------------------------------------|--Piano-------------------------|
B--------------------------------------------------|--------------------------------|
G-4~~--6--4~-------/-4~~---6~-/-9~--8~------4-4---|---11-10--------8-7-10-8------/7|
D-------------6~~---------------------------4-4---|----------9-10------------8-9---|
A-------------------------------------------2-2---|--------------------------------|
E--------------------------------------------------|--------------------------------|
| |
E|---------|--Contra-Bass-&-Violin----------|
B|---------|--------------------------------|
G|--4-4---|--11~----10~---------------7~--6|
D|--4-4---|---------------10~---9~---------|
A|--2-2---|---9~-----8~---------------5~--4|
E|---------|----------------8~---7~---------|

ars Guitar enter at (5:08)
E----5-4-------------|-------------|------------------------------------------------|
B---------9-4-/-8~---|-------------|------------------------------------------------|
G-6------------------|--Orchestra--|--4-4~-------------------------9--------------|
D--------------------|-------------|--4-4-------5~------9---------9---------9---|
A--------------------|-------------|--2-2-------4~------9---------7---------9---|
E--------------------|-------------|---------------------7-7-9-10-----7-9-10--7---|
| |

Log In to leave a comment

After registration we will return you to the same place
Comments
face-with-monocle
If you wait a bit, some comments may appear here...

Shhh...