Revel 68 logo

Sick Of This Revel 68

  • 0
  • Share
  • Transposing
    0
  • Font Size
Revel 68 – Sick Of This
Artist:Revel 68
Title: Sick of This

E :|*----------------*1||*----------------*1||*----------------*1|
B :|*----------------*|||*----------------*|||*----------------*||
G :| ---------------- ||| ---------------- ||| ---------------- ||
D :| ---------------- ||| ---------------- ||| ---------------- ||
A :| ---------------- ||| ---------------- ||| ---------------- ||
E :| ---------------- ||| ---------------- ||| ---------------- ||

E :----------------|----------------||*----------------*1|
B :----------------|----------------||*----------------*||
G :----------------|----------------|| ---------------- ||
D :----------------|----------------|| ----0-------0--- ||
A :----------------|----------------|| --9---9---9---9- ||
E :----------------|----------------|| 7-------7------- ||

E :|*----------------*1||*----------------*1|----------------|
B :|*----------------*|||*----------------*||----------------|
G :| ---------------- ||| ---------------- ||----------------|
D :| ----0-------0--- ||| ----3-------3--- ||----0-------0---|
A :| --7---7---7---7- ||| --5---5---5---5- ||--2---2---2---2-|
E :| 5-------5------- ||| 3-------3------- ||0-------0-------|

E :----------------||*----------------*1||*----------------*1|
B :----------------||*----------------*|||*----------------*||
G :----------------|| ---------------- ||| ---------------- ||
D :----0-----------|| ----0-------0--- ||| ----0-------0--- ||
A :--2---2---------|| --9---9---9---9- ||| --7---7---7---7- ||
E :0---------0-0-0-|| 7-------7------- ||| 5-------5------- ||
^ verse

E :|*----------------*1||*----------------*1|----------------|
B :|*----------------*|||*----------------*||----------------|
G :| ---------------- ||| ---------------- ||----------------|
D :| ----3-------3--- ||| ----0-------0--- ||----------------|
A :| --5---5---5---5- ||| --2---2---2---2- ||9-9-------------|
E :| 3-------3------- ||| 0-------0------- ||7-7-------------|
^

E :----------------|----------------|----------------|
B :----------------|----------------|----------------|
G :----------------|----------------|----------------|
D :----------------|----------------|----------------|
A :7-7-------------|5-5-------------|2-2-------------|
E :5-5-------------|3-3-------------|0-0-------------|

E :|*----------------*1||*----------------*1||*----------------*1|
B :|*----------------*|||*----------------*|||*----------------*||
G :| ---------------- ||| ---------------- ||| ---------------- ||
D :| ----9-------9--- ||| ----7-------7--- ||| ----5-------5--- ||
A :| --9---9---9---9- ||| --7---7---7---7- ||| --5---5---5---5- ||
E :| 7-------7------- ||| 5-------5------- ||| 3-------3------- ||
^ chorus ^

E :|*----------------*1|----------------|----------------|
B :|*----------------*||----1-------1---|----1-------1---|
G :| ---------------- ||--2---2---2---2-|--0---0---0---0-|
D :| ----2-------2--- ||2-------2-------|2-------2-------|
A :| --2---2---2---2- ||----------------|----------------|
E :| 0-------0------- ||----------------|----------------|

E :----------------|----------------||*----------------*1|
B :----1-------1---|----1-------1---||*----------------*||
G :--0---0---0---0-|--0---0---0---0-|| ---------------- ||
D :0-------0-------|----------------|| ----0-------0--- ||
A :----------------|0-------0-------|| --9---9---9---9- ||
E :----------------|----------------|| 7-------7------- ||

E :|*----------------*1||*----------------*1||*----------------*1|
B :|*----------------*|||*----------------*|||*----------------*||
G :| ---------------- ||| ---------------- ||| ---------------- ||
D :| ----0-------0--- ||| ----3-------3--- ||| ----0-------0--- ||
A :| --7---7---7---7- ||| --5---5---5---5- ||| --2---2---2---2- ||
E :| 5-------5------- ||| 3-------3------- ||| 0-------0------- ||
^ verse ^

E :----------------|----------------|----------------|----------------|
B :----------------|----------------|----------------|----------------|
G :----------------|----------------|----------------|----------------|
D :----------------|----------------|----------------|----------------|
A :9-9-------------|7-7-------------|5-5-------------|2-2-------------|
E :7-7-------------|5-5-------------|3-3-------------|0-0-------------|

E :|*----------------*1||*----------------*1||*----------------*1|
B :|*----------------*|||*----------------*|||*----------------*||
G :| ---------------- ||| ---------------- ||| ---------------- ||
D :| ----9-------9--- ||| ----7-------7--- ||| ----5-------5--- ||
A :| --9---9---9---9- ||| --7---7---7---7- ||| --5---5---5---5- ||
E :| 7-------7------- ||| 5-------5------- ||| 3-------3------- ||
^ chorus ^

E :|*----------------*1||*----------------|----------------|
B :|*----------------*|||*----------------|----------------|
G :| ---------------- ||| ----------------|----------------|
D :| ----2-------2--- ||| ----8-------8---|----6-------6---|
A :| --2---2---2---2- ||| --8---8---8---8-|--6---6---6---6-|
E :| 0-------0------- ||| 6-------6-------|4-------4-------|
bridge

E :----------------|----------------*1|----------------|
B :----------------|----------------*||----------------|
G :----------------|---------------- ||----------------|
D :----4-------4---|----2-------2--- ||----------------|
A :--4---4---4---4-|--2---2---2---2- ||----------------|
E :2-------2-------|0-------0------- ||6---------------|

E :|*----------------*1||*----------------*1||*----------------*1|
B :|*----------------*|||*----------------*|||*----------------*||
G :| ---------------- ||| ---------------- ||| ---------------- ||
D :| ----0-------0--- ||| ----0-------0--- ||| ----3-------3--- ||
A :| --9---9---9---9- ||| --7---7---7---7- ||| --5---5---5---5- ||
E :| 7-------7------- ||| 5-------5------- ||| 3-------3------- ||
^ verse ^

E :|*----------------*1||*----------------|----------------|
B :|*----------------*|||*----------------|----------------|
G :| ---------------- ||| ----------------|----------------|
D :| ----0-------0--- ||| ----------------|----------------|
A :| --2---2---2---2- ||| 9-9-------------|7-7-------------|
E :| 0-------0------- ||| 7-7-------------|5-5-------------|

E :----------------|----------------*1||*----------------*1|
B :----------------|----------------*|||*----------------*||
G :----------------|---------------- ||| ---------------- ||
D :----------------|---------------- ||| ----9-------9--- ||
A :5-5-------------|2-2------------- ||| --9---9---9---9- ||
E :3-3-------------|0-0------------- ||| 7-------7------- ||
^

E :|*----------------*1||*----------------*1||*----------------*1|
B :|*----------------*|||*----------------*|||*----------------*||
G :| ---------------- ||| ---------------- ||| ---------------- ||
D :| ----7-------7--- ||| ----5-------5--- ||| ----2-------2--- ||
A :| --7---7---7---7- ||| --5---5---5---5- ||| --2---2---2---2- ||
E :| 5-------5------- ||| 3-------3------- ||| 0-------0------- ||
chorus ^

E :|*----------------*1||*----------------*1|----------------|
B :|*----------------*|||*----------------*||----------------|
G :| ---------------- ||| ---------------- ||----------------|
D :| ----9-------9--- ||| ----7-------7--- ||------5---------|
A :| --9---9---9---9- ||| --7---7---7---7- ||---5-----5-----5|
E :| 7-------7------- ||| 5-------5------- ||3-----------3---|
ending ^ gradually slow

E :----------------|----------------|----------------|----------------|
B :----------------|----------------|----------------|----------------|
G :----------------|----------------|----------------|----------------|
D :--5-------------|2-------------2-|---2-----2------|-----*----------|
A :-----5------2---|----2---------2-|---2-----2------|-----*----------|
E :--------0-------|--------0-----0-|---0-----0------|-----*----------|
down

Log In to leave a comment

After registration we will return you to the same place
Comments
face-with-monocle
If you wait a bit, some comments may appear here...

Shhh...

Most Popular