Loading...
Revel 68 logo

Prize Revel 68

  • 0
  • Share
  • Transposing
    0
  • Font Size
Revel 68 – Prize
Artist:Revel 68
Title:Prize
E :0----0--0-0-0-0--0|--0--0----0---0-|0-0--0--0--3----3|
B :1----1--1-1-1-1--1|--1--0----0---0-|0-0--0--0--0----0|
G :0----0--0-0-0-0--0|--0--0----0---0-|0-0--0--0--0----0|
D :2----2--2-2-2-2--2|--2--2----2---2-|2-2--2--2--0----0|
A :3----3--3-3-3-3--3|--3--2----2---2-|2-2--2--2--2----2|
E :------------------|-----0----0---0-|0-0--0--0--3----3|
INrто inтrо

E :---3-3-3--3---3--|*0----0---0-0-0-0--0--0--0----0--0-0-0-0--0--0--0-|
B :---0-0-0--0---0--|*1----1---1-1-1-1--1--1--1----1--1-1-1-1--1--1--0-|
G :---0-0-0--0---0--| 2----2---2-2-2-2--2--2--0----0--0-0-0-0--0--0--0-|
D :---0-0-0--0---0--| 2----2---2-2-2-2--2--2--2----2--2-2-2-2--2--2--2-|
A :---2-2-2--2---2--| 0----0---0-0-0-0--0--0--3----3--3-3-3-3--3--3--2-|
E :---3-3-3--3---3--| -----------------------------------------------0-|

E :---0---0-0-0--0--0--3----3---3-3-3--3---3--0---0-0-0-0--0--|
B :---0---0-0-0--0--0--0----0---0-0-0--0---0--1---1-1-1-1--1--|
G :---0---0-0-0--0--0--0----0---0-0-0--0---0--2---2-2-2-2--2--|
D :---2---2-2-2--2--2--0----0---0-0-0--0---0--2---2-2-2-2--2--|
A :---2---2-2-2--2--2--2----2---2-2-2--2---2--0---0-0-0-0--0--|
E :---0---0-0-0--0--0--3----3---3-3-3--3---3------------------|

E :0--0----0--0-0-0-0|--0--0--0----0--|-0-0-0--0--0--3--|
B :1--1----1--1-1-1-1|--1--1--0----0--|-0-0-0--0--0--0--|
G :2--0----0--0-0-0-0|--0--0--0----0--|-0-0-0--0--0--0--|
D :2--2----2--2-2-2-2|--2--2--2----2--|-2-2-2--2--2--0--|
A :0--3----3--3-3-3-3|--3--3--2----2--|-2-2-2--2--2--2--|
E :------------------|--------0----0--|-0-0-0--0--0--3--|

E :--3---3-3-3--3---|
B :--0---0-0-0--0---|
G :--0---0-0-0--0---|
D :--0---0-0-0--0---|
A :--2---2-2-2--2---|
E :--3---3-3-3--3---|

E :3--|*0----0---0-0-0-0--0--0--0----0--0-0-0-0--0--0--0----0---0-0-0--|
B :0--|*1----1---1-1-1-1--1--1--1----1--1-1-1-1--1--1--0----0---0-0-0--|
G :0--| 2----2---2-2-2-2--2--2--0----0--0-0-0-0--0--0--0----0---0-0-0--|
D :0--| 2----2---2-2-2-2--2--2--2----2--2-2-2-2--2--2--2----2---2-2-2--|
A :2--| 0----0---0-0-0-0--0--0--3----3--3-3-3-3--3--3--2----2---2-2-2--|
E :3--| -----------------------------------------------0----0---0-0-0--|
1 verse 1 ver se

E :0--0--3----3---3-3-3--3---3--*3||*0-0-0---1-1-|1---1-1---0-0-0-|0---*3|
B :0--0--0----0---0-0-0--0---0--*|||*1-1-1-0-3-3-|3-0-1-1-0-1-1-1-|1-0-*||
G :0--0--0----0---0-0-0--0---0-- ||| 0-0-0-0-2-2-|2-0-2-2-0-0-0-0-|0-0- ||
D :2--2--0----0---0-0-0--0---0-- ||| 2-2-2-0-0-0-|0-0-3-3-0-2-2-2-|2-0- ||
A :2--2--2----2---2-2-2--2---2-- ||| 3-3-3-------|----0-0---3-3-3-|3--- ||
E :0--0--3----3---3-3-3--3---3-- ||| ------------|----------------|---- ||
1 verse 1 сноrus

E :|*0-0-0---0|-0-0---3-3---0-0|-0-0---*3|0----0--0|0-0-0--0--0--0---|
B :|*1-1-1-0-0|-0-0-0-0-0-0-1-1|-1-1-0-*||1----1--1|1-1-1--1--1--0---|
G :| 0-0-0-0-0|-0-0-0-0-0-0-2-2|-2-2-0- ||0----0--0|0-0-0--0--0--0---|
D :| 2-2-2-0-2|-2-2-0-0-0-0-2-2|-2-2-0- ||2----2--2|2-2-2--2--2--2---|
A :| 3-3-3---2|-2-2---2-2---0-0|-0-0--- ||3----3--3|3-3-3--3--3--2---|
E :| --------0|-0-0---3-3------|------- ||---------|-------------0---|
2 сноrus

E :-0---0-0-0--0--0-|-3----3---3-3-3--|3---3--|*0----0---|
B :-0---0-0-0--0--0-|-0----0---0-0-0--|0---0--|*1----1---|
G :-0---0-0-0--0--0-|-0----0---0-0-0--|0---0--| 2----2---|
D :-2---2-2-2--2--2-|-0----0---0-0-0--|0---0--| 2----2---|
A :-2---2-2-2--2--2-|-2----2---2-2-2--|2---2--| 0----0---|
E :-0---0-0-0--0--0-|-3----3---3-3-3--|3---3--| ---------|
inтrо t о 2 verse 2 vers

E :0-0-0-0--0--0--0--|--0--0-0-0-0--0--0|--0----0---0-0-0-|
B :1-1-1-1--1--1--1--|--1--1-1-1-1--1--1|--0----0---0-0-0-|
G :2-2-2-2--2--2--0--|--0--0-0-0-0--0--0|--0----0---0-0-0-|
D :2-2-2-2--2--2--2--|--2--2-2-2-2--2--2|--2----2---2-2-2-|
A :0-0-0-0--0--0--3--|--3--3-3-3-3--3--3|--2----2---2-2-2-|
E :------------------|------------------|--0----0---0-0-0-|
e 2 ver se

E :-0--0--3----3---|3-3-3--3---3--*3||*0-0|-0---1-1-1---1-1|
B :-0--0--0----0---|0-0-0--0---0--*|||*1-1|-1-0-3-3-3-0-1-1|
G :-0--0--0----0---|0-0-0--0---0-- ||| 0-0|-0-0-2-2-2-0-2-2|
D :-2--2--0----0---|0-0-0--0---0-- ||| 2-2|-2-0-0-0-0-0-3-3|
A :-2--2--2----2---|2-2-2--2---2-- ||| 3-3|-3-----------0-0|
E :-0--0--3----3---|3-3-3--3---3-- ||| ---|----------------|
2 ve rse 1 сноrus

E :---0-0-0-0---*3|0-0|-0---0-0-0---3-3|---0-0-0-0---*3|1-1|
B :-0-1-1-1-1-0-*||1-1|-1-0-0-0-0-0-0-0|-0-1-1-1-1-0-*||3-3|
G :-0-0-0-0-0-0- ||0-0|-0-0-0-0-0-0-0-0|-0-2-2-2-2-0- ||2-2|
D :-0-2-2-2-2-0- ||2-2|-2-0-2-2-2-0-0-0|-0-2-2-2-2-0- ||0-0|
A :---3-3-3-3--- ||3-3|-3---2-2-2---2-2|---0-0-0-0--- ||---|
E :------------- ||---|-----0-0-0---3-3|------------- ||---|
2 сноrus

E :-1-1-1-1-1-1-1-1|-1-1-1-1-1-1-0-0|-0-0-0-0-0-0-1-1|-1-1-1-1-1-1-*1|
B :-3-3-3-3-3-3-1-1|-1-1-1-1-1-1-1-1|-1-1-1-1-1-1-3-3|-3-3-3-3-3-3-*||
G :-2-2-2-2-2-2-2-2|-2-2-2-2-2-2-0-0|-0-0-0-0-0-0-2-2|-2-2-2-2-2-2- ||
D :-0-0-0-0-0-0-3-3|-3-3-3-3-3-3-2-2|-2-2-2-2-2-2-0-0|-0-0-0-0-0-0- ||
A :-------------0-0|-0-0-0-0-0-0-3-3|-3-3-3-3-3-3----|------------- ||
E :----------------|----------------|----------------|------------- ||
bridge

E :1-1-1-1-1-1-1-1-1-1-1-1-1-1-1-1-0-0-0-0-0-0-0-0-1-1-1-1-1-1-1-1-*1|
B :3-3-3-3-3-3-3-3-1-1-1-1-1-1-1-1-1-1-1-1-1-1-1-1-3-3-3-3-3-3-3-3-*||
G :2-2-2-2-2-2-2-2-2-2-2-2-2-2-2-2-0-0-0-0-0-0-0-0-2-2-2-2-2-2-2-2- ||
D :0-0-0-0-0-0-0-0-3-3-3-3-3-3-3-3-2-2-2-2-2-2-2-2-0-0-0-0-0-0-0-0- ||
A :----------------0-0-0-0-0-0-0-0-3-3-3-3-3-3-3-3----------------- ||
E :---------------------------------------------------------------- ||
bridge

E :0-0-0---1-1-1---1-1---0-0-0-0---*3|0-0-0---0-0-0---3-3---0-0-0-0---*3|
B :1-1-1-0-3-3-3-0-1-1-0-1-1-1-1-0-*||1-1-1-0-0-0-0-0-0-0-0-1-1-1-1-0-*||
G :0-0-0-0-2-2-2-0-2-2-0-0-0-0-0-0- ||0-0-0-0-0-0-0-0-0-0-0-2-2-2-2-0- ||
D :2-2-2-0-0-0-0-0-3-3-0-2-2-2-2-0- ||2-2-2-0-2-2-2-0-0-0-0-2-2-2-2-0- ||
A :3-3-3-----------0-0---3-3-3-3--- ||3-3-3---2-2-2---2-2---0-0-0-0--- ||
E :-------------------------------- ||--------0-0-0---3-3------------- ||
1 сноrus 2сноrus

E :0----0--0-0-0-0--|0--0--0----0---0|-0-0--0--0--3----|
B :1----1--1-1-1-1--|1--1--0----0---0|-0-0--0--0--0----|
G :0----0--0-0-0-0--|0--0--0----0---0|-0-0--0--0--0----|
D :2----2--2-2-2-2--|2--2--2----2---2|-2-2--2--2--0----|
A :3----3--3-3-3-3--|3--3--2----2---2|-2-2--2--2--2----|
E :-----------------|------0----0---0|-0-0--0--0--3----|
INrто inтrо то 3

E :3---3-3-3--3---3-||*-0----0---0-0-0-0-|-0--0--0----0--0|
B :0---0-0-0--0---0-||*-1----1---1-1-1-1-|-1--1--1----1--1|
G :0---0-0-0--0---0-|| -2----2---2-2-2-2-|-2--2--0----0--0|
D :0---0-0-0--0---0-|| -2----2---2-2-2-2-|-2--2--2----2--2|
A :2---2-2-2--2---2-|| -0----0---0-0-0-0-|-0--0--3----3--3|
E :3---3-3-3--3---3-|| ------------------|----------------|
verse 3 verse 3 ver

E :0-0-0--0--0--0---|-0---0-0-0--0--0-|-3----3---3-3-3--|3---3-*3|
B :1-1-1--1--1--0---|-0---0-0-0--0--0-|-0----0---0-0-0--|0---0-*||
G :0-0-0--0--0--0---|-0---0-0-0--0--0-|-0----0---0-0-0--|0---0- ||
D :2-2-2--2--2--2---|-2---2-2-2--2--2-|-0----0---0-0-0--|0---0- ||
A :3-3-3--3--3--2---|-2---2-2-2--2--2-|-2----2---2-2-2--|2---2- ||
E :-------------0---|-0---0-0-0--0--0-|-3----3---3-3-3--|3---3- ||
se 3 verse

E :|*-0-0-0---1|-1-1---1-1---0-0|-0-0--*3|-0-0-0---0|-0-0---3-3---0-0|
B :|*-1-1-1-0-3|-3-3-0-1-1-0-1-1|-1-1-0*||-1-1-1-0-0|-0-0-0-0-0-0-1-1|
G :| -0-0-0-0-2|-2-2-0-2-2-0-0-0|-0-0-0 ||-0-0-0-0-0|-0-0-0-0-0-0-2-2|
D :| -2-2-2-0-0|-0-0-0-3-3-0-2-2|-2-2-0 ||-2-2-2-0-2|-2-2-0-0-0-0-2-2|
A :| -3-3-3----|-------0-0---3-3|-3-3-- ||-3-3-3---2|-2-2---2-2---0-0|
E :| ----------|----------------|------ ||---------0|-0-0---3-3------|
1 сноru s 2сноrus

ending
E :-0-0--*7|-0-----|--------------0-|----------------|---3------------|
B :-1-1-0*||-1----1|--------------0-|----------------|---0------------|
G :-2-2-0 ||-0-----|--0------0----0-|------0---------|---0-------0----|
D :-2-2-0 ||-2-----|--------------2-|----------2-----|2--0-----------0|
A :-0-0-- ||-3-----|------3----3--2-|---2---------2--|---2----2-------|
E :------ ||-------|--------------0-|----------------|---3------------|

E :--------0-------|-------------0--|----------------|-0--------------|
B :--------1----1--|----------1--1--|--1-------------|-0--------------|
G :--------2-------|2------2-----0--|-----0------0---|-0-------0------|
D :-----0--2-------|----2--------2--|----------------|-2-----------2--|
A :--------0-------|-------------3--|---------3----3-|-2----2---------|
E :--3-----0-------|----------------|----------------|-0--------------|

E :------3---------|------------0---|----------------|
B :------0---------|------------1---|-1------------1-|
G :------0-------0-|------------2---|----2------2----|
D :---2--0---------|--0-----0---2---|--------2-------|
A :2-----2----2----|------------0---|----------------|
E :------3---------|-----3------0---|----------------|

E :---------0----------|
B :-------1------------|
G :-----0--------------|
D :---2----------------|
A :-3------------------|
E :--------------------|

Log In to leave a comment

After registration we will return you to the same place
Comments
face-with-monocle
If you wait a bit, some comments may appear here...

Shhh...

Most Popular