Revel 68 logo

Ease The Pain Revel 68

  • 0
  • Share
  • Transposing
    0
  • Font Size
Revel 68 – Ease The Pain
Artist:Revel 68
Title: Ease the Pain

E :----------------|----------------|----------------|----------------*2|
B :----------------|----------------|----------------|----------------*||
G :----------------|----------------|----------------|---------------- ||
D :----------------|----------------|----------------|---------------- ||
A :7---7-*---5---5-|--5-5-7---7-7-7-|7---7-*---5---5-|--5-5-3---3-3-3- ||
E :5---5-*---5---5-|--5-5-7---7-7-7-|5---5-*---5---5-|--5-5-3---3-3-3- ||
^ chorus ^

E :----------------|----------------|----------------|----------------|
B :----------------|----------------|----------------|----------------|
G :----------------|----------------|----------------|----------------|
D :----------------|----------------|----------------|----------------|
A :2---------------|----------------|----------------|----------------|
E :0---------------|----------------|----------------|----------------|

E :----------------|----------------|----------------|----------------|
B :----------------|----------------|----------------|----------------|
G :----------------|----------------|----------------|----------------|
D :9---------------|--------------9-|7---------------|--------------7-|
A :9---------------|--------------9-|7---------------|--------------7-|
E :7---------------|--------------7-|5---------------|--------------5-|
verse 1

E :----------------|----------------|----------------|----------------|
B :----------------|----------------|----------------|----------------|
G :----------------|----------------|----------------|----------------|
D :9---------------|--------------9-|7---------------|--------------7-|
A :9---------------|--------------9-|7---------------|--------------7-|
E :7---------------|--------------7-|5---------------|--------------5-|

E :----------------|----------------|----------------|----------------|
B :----------------|----------------|----------------|----------------|
G :----------------|----------------|----------------|----------------|
D :5---------------|--------------5-|7---------------|--------------7-|
A :5---------------|--------------5-|7---------------|--------------7-|
E :3---------------|--------------3-|5---------------|--------------5-|

E :----------------|----------------|----------------|----------------|
B :----------------|----------------|----------------|----------------|
G :----------------|----------------|----------------|----------------|
D :9---------------|--------------9-|5---------------|--------------5-|
A :9---------------|--------------9-|5---------------|--------------5-|
E :7---------------|--------------7-|3---------------|--------------3-|

E :----------------|----------------|----------------|----------------|
B :----------------|----------------|----------------|----------------|
G :----------------|----------------|----------------|----------------|
D :2---------------|----------------|*---------------|----------------|
A :2---------------|----------------|*---------------|----------------|
E :0---------------|----------------|0-x-x-x-0-x-x-x-|0-0-0-0-0-0-0-0-|

E :----------------|----------------||*----------------|
B :----------------|----------------||*----------------|
G :----------------|----------------|| ----------------|
D :----------------|----------------|| ----------------|
A :2-------2-------|2---2---2-2-2-2-|| 7---7-*---5---5-|
E :0-0-0-0-0-0-0-0-|0-0-0-0-0-0-0-0-|| 5---5-*---5---5-|

E :----------------|----------------|----------------*3|
B :----------------|----------------|----------------*||
G :----------------|----------------|---------------- ||
D :----------------|----------------|---------------- ||
A :--5-5-7---7-7-7-|7---7-*---5---5-|--5-5-3---3-3-3- ||
E :--5-5-7---7-7-7-|5---5-*---5---5-|--5-5-3---3-3-3- ||
^ cho rus ^

E :----------------|----------------|----------------|----------------|
B :----------------|----------------|----------------|----------------|
G :----------------|----------------|----------------|----------------|
D :----------------|----------------|----------------|----------------|
A :2---------------|----------------|----------------|----------------|
E :0---------------|----------------|----------------|----------------|

E :----------------|----------------|----------------|----------------|
B :----------------|----------------|----------------|----------------|
G :----------------|----------------|----------------|----------------|
D :9---------------|--------------9-|7---------------|--------------7-|
A :9---------------|--------------9-|7---------------|--------------7-|
E :7---------------|--------------7-|5---------------|--------------5-|
verse 2

E :----------------|----------------|----------------|----------------|
B :----------------|----------------|----------------|----------------|
G :----------------|----------------|----------------|----------------|
D :9---------------|--------------9-|7---------------|--------------7-|
A :9---------------|--------------9-|7---------------|--------------7-|
E :7---------------|--------------7-|5---------------|--------------5-|

E :----------------|----------------|----------------|----------------|
B :----------------|----------------|----------------|----------------|
G :----------------|----------------|----------------|----------------|
D :5---------------|--------------5-|7---------------|--------------7-|
A :5---------------|--------------5-|7---------------|--------------7-|
E :3---------------|--------------3-|5---------------|--------------5-|

E :----------------|----------------|----------------|----------------|
B :----------------|----------------|----------------|----------------|
G :----------------|----------------|----------------|----------------|
D :9---------------|--------------9-|5---------------|--------------5-|
A :9---------------|--------------9-|5---------------|--------------5-|
E :7---------------|--------------7-|3---------------|--------------3-|

E :----------------|----------------|----------------|----------------|
B :----------------|----------------|----------------|----------------|
G :----------------|----------------|----------------|----------------|
D :2---------------|----------------|*---------------|----------------|
A :2---------------|----------------|*---------------|----------------|
E :0---------------|----------------|0---------------|0-0-0-0-0-0-0-0-|

E :----------------|----------------||*----------------|
B :----------------|----------------||*----------------|
G :----------------|----------------|| ----------------|
D :----------------|----------------|| ----------------|
A :2-------2-------|2---2---2-2-2-2-|| 7---7-*---5---5-|
E :0-0-0-0-0-0-0-0-|0-0-0-0-0-0-0-0-|| 5---5-*---5---5-|

E :----------------|----------------|----------------*3|
B :----------------|----------------|----------------*||
G :----------------|----------------|---------------- ||
D :----------------|----------------|---------------- ||
A :--5-5-7---7-7-7-|7---7-*---5---5-|--5-5-3---3-3-3- ||
E :--5-5-7---7-7-7-|5---5-*---5---5-|--5-5-3---3-3-3- ||
^ cho rus ^

E :|*----------------|-----------------|-----------------|
B :|*----------------|-----------------|-----------------|
G :| ----------------|-----------------|-----------------|
D :| ----------------|-----------------|-----------------|
A :| 3-3-3-3-3-3-3-3-|/5-5-5-5-5-5-5-5-|/7-7-7-7-7-7-7-7-|
E :| 1-1-1-1-1-1-1-1-|/3-3-3-3-3-3-3-3-|/5-5-5-5-5-5-5-5-|

E :-----------------*1||*----------------|-----------------|
B :-----------------*|||*----------------|-----------------|
G :----------------- ||| ----------------|-----------------|
D :----------------- ||| ----------------|-----------------|
A :7-7-7-7-7-7-7-7- ||| 3-3-3-3-3-3-3-3-|/5-5-5-5-5-5-5-5-|
E :5-5-5-5-5-5-5-5- ||| 1-1-1-1-1-1-1-1-|/3-3-3-3-3-3-3-3-|
^ bri

E :-----------------|-----------------*1||*----------------|
B :-----------------|-----------------*|||*----------------|
G :-----------------|----------------- ||| ----------------|
D :-----------------|----------------- ||| ----------------|
A :/7-7-7-7-7-7-7-7-|7-7-7-7-7-7-7-7- ||| 3-----------3-3-|
E :/5-5-5-5-5-5-5-5-|5-5-5-5-5-5-5-5- ||| 1-----------1-1-|
dge ^

E :----------------|----------------|----------------*3|
B :----------------|----------------|----------------*||
G :----------------|----------------|---------------- ||
D :----------------|----------------|---------------- ||
A :5-----------5-5-|7---------------|----7---9---7--- ||
E :3-----------3-3-|5---------------|----5---7---5--- ||

E :----------------|----------------|----------------|----------------|
B :----------------|----------------|----------------|----------------|
G :----------------|----------------|----------------|----------------|
D :----------------|----------------|*---------------|----------------|
A :2---------------|----------------|*---------------|----------------|
E :0---------------|----------------|0---------------|0-0-0-0-0-0-0-0-|

E :----------------|----------------||*----------------|
B :----------------|----------------||*----------------|
G :----------------|----------------|| ----------------|
D :----------------|----------------|| ----------------|
A :2-------2-------|2---2---2-2-2-2-|| 7---7-*---5---5-|
E :0-0-0-0-0-0-0-0-|0-0-0-0-0-0-0-0-|| 5---5-*---5---5-|

E :----------------|----------------|----------------*3|
B :----------------|----------------|----------------*||
G :----------------|----------------|---------------- ||
D :----------------|----------------|---------------- ||
A :--5-5-7---7-7-7-|7---7-*---5---5-|--5-5-3---3-3-3- ||
E :--5-5-7---7-7-7-|5---5-*---5---5-|--5-5-3---3-3-3- ||
^ cho rus x2 ^

E :----------------|----------------|----------------|----------------|
B :----------------|----------------|----------------|----------------|
G :----------------|----------------|----------------|----------------|
D :----------------|----------------|----------------|----------------|
A :7---7-*---5---5-|--5-5-7---7-7-7-|7---7-*---5---5-|--5-5-3---3-3-3-|
E :5---5-*---5---5-|--5-5-7---7-7-7-|5---5-*---5---5-|--5-5-3---3-3-3-|

E :----------------|----------------|----------------|----------------|
B :----------------|----------------|----------------|----------------|
G :----------------|----------------|----------------|----------------|
D :----------------|----------------|----------------|----------------|
A :7---7-*---5---5-|--5-5-7---7-7-7-|7---7-*---5---5-|--5-5-3----3--3-|
E :5---5-*---5---5-|--5-5-7---7-7-7-|5---5-*---5---5-|--5-5-3----3--3-|

E :----------------|
B :----------------|
G :----------------|
D :----------------|
A :-3--7-*---------|
E :-3--5-*---------|

Log In to leave a comment

After registration we will return you to the same place
Comments
face-with-monocle
If you wait a bit, some comments may appear here...

Shhh...

Most Popular