Reveille logo

Unborn Reveille

  • 0
  • Share
  • Font Size
    15
Reveille – Unborn
ARTIST: REVEILLE
SONG: UNBORN
ALBUM: BLEED THE SKY
TRACK #: ONE

Tune down 1/2 step and drop the low e to a d flat

INTRO

E|------10-------------------|
B|----------10--9------------|
G|-----------------10--9--7--|
D|-0-------------------------|
A|-0-------------------------|
D|-0-------------------------|

BRIDGE

E|-----------------------------------------------------------|
B|-----------------------------------------------------------|
G|-----------------------------------------------------------|
D|-00-0-0-000-0-0-000-0-0-00-3-00-0-0-000-0-0-000-0-0-00-353-|
A|-00-0-0-000-0-0-000-0-0-00-3-00-0-0-000-0-0-000-0-0-00-353-|
D|-00-0-0-000-0-0-000-0-0-00-3-00-0-0-000-0-0-000-0-0-00-353-|

CHORUS

E|-------------------|
B|-------------------|
G|-------------------|
D|-7-----------------|
A|-5--7--6--3--2--0--|
D|----7--6--3--2--0--|       REPEAT 3 TIMES THEN GO

E|----------|
B|----------|
G|----------|
D|-7--10--7-|
A|-7--10--5-|
D|-7--10----|

Listen to song for rythem, timing and order

Log In to leave a comment

After registration we will return you to the same place
Comments
face-with-monocle
If you wait a bit, some comments may appear here...

Shhh...