Loading...
Relient K logo

Breakdown Relient K

  • 0
  • Share
  • Font Size
Relient K – Breakdown
Breakdown by Relient К
Standard Tuning

(Intro)
G:----------------
D:----------------
A:5----2----5--7-7
E:----------------

G:------------------------------------
D:------------------------------------ X2
A:-0-0-0-0-0-4-5-5-5-5-5-2-2-2-2-5-7-7
E:------------------------------------

G:---------------
D:---------------
A:0-0-0-0-0-0-0-0
E:---------------

G:------------------------------------
D:------------------------------------
A:-0-0-0-0-0-4-5-5-5-5-5-2-2-2-2-5-7-7
E:------------------------------------

G:---------------
D:---------------
A:0-0-0-0-0-0-0-0
E:---------------

G:------------------
D:-------------2-2-2 X4
A:-5-7-0-2-2-2------
E:------------------

G:---------------------------
D:----------------------2-2-2 X4
A:5-5-5-5-7-7-7-7-0-0-0------
E:---------------------------

(1.54)
G:---------
D:--------- X5
A:0-------5
E:---------

G:----------------
D:----------------
A:5----2----5--7-7
E:----------------

G:------------------------------------
D:------------------------------------
A:-0-0-0-0-0-4-5-5-5-5-5-2-2-2-2-5-7-7
E:------------------------------------

G:------------------------------
D:-----------------------2-2-2-2 X10
A:-2-2-2-2-5-5-5-5-0-0-0--------
E:------------------------------

Thanks, please rate after you learn.
Tabbed by:
_TheBassist01_

Log In to leave a comment

After registration we will return you to the same place
Comments
face-with-monocle
If you wait a bit, some comments may appear here...

Shhh...