Red Hot Chili Peppers logo

This Velvet Glove Red Hot Chili Peppers

  • 0
  • Share
  • Transposing
    0
  • Font Size
Red Hot Chili Peppers – This Velvet Glove
-Intro

Dm C A# Dm C A#
E----------------------------------------------------------------------------
B----------------------------------------------------------------------------
G
D------10--12------10--12------------------10--12------10--12----------------
A--12----------10----------8---7-8-7---12----------10----------8---7--8-7----
E----------------------------------------------------------------------------

Dm C A# Dm C A#
E
B-------------------------10--------------------------------------
G--12--10--9------------------12--9-------------------------------
D-------------10--10/12--------------10--12----12--12-12----12----
A-----------------------------------------------------------------
E-----------------------------------------------------------------

-Verse

Dm C A# Dm C A# A#
E----------|--------10-10---|
B-10-10-10-|10--10--10-10-|-10--10--10--|
G---------------|
D---------------|
A---------------|
E---------------|

Dm C A# --etc.
E----------10-10-----10---|
B-10--10---10-10--|-10--10--10---10---|
G-------------------------|
D-------------------------|
A-------------------------|
E-------------------------|

E------------|-10-10-------------|-10-10-----|
B-10--10--10-|-10-10-10--10--10--|-10-10-10--|
G--------------------|
D--------------------|
A--------------------|
E--------------------|

E----------------------------------------------------------------------------
B----------------------------------------------------------------------------
G
D------10--12------10--12------------------10--12------10--12----------------
A--12----------10----------8--8-8-8-8--12----------10----------8---8-8-8-8---
E----------------------------------------------------------------------------

Dm C A# Dm C A#
E
B-------------------------10-------------------
G--12--10--9------------------12--9------------
D-------------10--12-----------------10--12----
A----------------------------------------------
E----------------------------------------------

E--10-10-------
B--10-10-10----
G--------------
D--------------
A--------------
E--------------

E-10-10-------10-10-----|-10-10-----|----------10-10------10-10----|
B-10-10-10----10-10-10--|-10-10-10--|-10-10-10-10-10-10---10-10-10-|
G------------------------------------------|
D------------------------------------------|
A------------------------------------------|
E------------------------------------------|

E-10-10-----|
B-10-10-10--|
G-----------|
D-----------|
A-----------|
E-----------|

-Chorus

Dm A#
E-13--10------13-13-13--10------17--15-15---17--15-------|
B--------10----------------10----------------------15---|Play this
G--------------------------------------------------------|riff
D--------------------------------------------------------|3 times
A--------------------------------------------------------|
E--------------------------------------------------------|

C Am
E-15--13-13---15--15-13-13--10-----10---10--|
B-------------------------------------------|
G-------------------------------------------|
D-------------------------------------------|
A-------------------------------------------|
E-------------------------------------------|

-Interlude

Dm C A# Dm C A#
E-----8-10---------------------|----8-10------------------
B-10-------8-10--10-10--10-10--|-10------8-10--10-10--10--
G---------------------------------------------
D---------------------------------------------
A---------------------------------------------
E---------------------------------------------

-Verse

E-------------|---------10-10----|---------10-10-|
B-10--10--10--|-10--10--10-10--|-10--10--10--|-10--10--10-10-|
G------------------------|
D------------------------|
A------------------------|
E------------------------|

E-------------10-10--|
B-10--10--10--10-10--|Play this
G--------------------|riff
D--------------------|3 times
A--------------------|
E--------------------|

E--------------|
B-10--10--10---|
G--------------|
D--------------|
A--------------|
E--------------|

-Interlude
(strumming) (not strumming)
E---8----8---10--|--12--12--12/15--15----------|
B--10---12---13--|--13--13---------------------|
G----------------------------------|
D----------------------------------|
A----------------------------------|
E----------------------------------|

-Interlude

E-------------15-17----------------------|
B-10-13---15--------13-15--15-15--15-15--|
G----------------------------------------|
D----------------------------------------|
A----------------------------------------|
E----------------------------------------|

E-13--15-17------------------------------|
B-----------13-15---15-------------------|
G----------------------------------------|
D----------------------------------------|
A----------------------------------------|
E----------------------------------------|

-Verse

E-10-10--|--------10-10--|--------10-10--|--------10-10--| )
B-10-10--|-10--10-10-10--|-10--10-10-10--|-10--10-10-10--| )
G--------------------| )
D--------------------| )
A--------------------| )
E--------------------| )Play this
)
)3 times
E------------------------| )
B-10--10-10-10-10-10--|-10-10-10-10--| )
G------------------------| )
D------------------------| )
A------------------------| )
E------------------------| )

E-10-10------|
B--------10--|
G------------|
D------------|
A------------|
E------------|

Log In to leave a comment

After registration we will return you to the same place
Comments
face-with-monocle
If you wait a bit, some comments may appear here...

Shhh...