Red Hot Chili Peppers logo

Stone Cold Bush Red Hot Chili Peppers

  • 0
  • Share
  • Font Size
Red Hot Chili Peppers – Stone Cold Bush
Intro

With Wah (+ = Treble)

- + + +
E----------6-----------6-----------6-|--------|---------6---------6-|
B----------6-----------6-----------6-|--------|---------6---------6-|
G------------------------------------|--------|---------------------|
D------------------------------------|--------|---------------------|
A------------------------------------|--------|---------------------|
E-3-3-3-3-----3-3-3-3-----3-3-3-3----|-0-1-2--|-3-3-3-3----3-3-3-3--|
use thumb
+ + + +

E------------------|---6-6-6-6--------|
B------------------|---6-6-6-6--------|
G------------------|-----------etc...-|
D------------------|------------------|
A----3-3-1--1--1-0-|------------------|
E--3--3----3-3-----|------------------|
With wah 'get up off your knees' bit etc.
(not sure this bit)
E---------------------------|
B---------------------------|
G---------------------------|
D--55555555-3333-2222-----5-|
A--33333333-1111-0000-----5-|
E-------------------------3-|
she's--- Stone- Cold Bush'

Then bass solo
Then Guitar solo :-)

then.... + +
E-------------|----------------6----------------6---6-5-4-3-2----------|
B----------7-5|--8-6-6-6-8-6-6-6--8-6-6-6-8-6-6-6----------------------|
G----------7-5|--------------------------------------------------------|
D-55555555-5-3|------------------------------------------------8-7-6-5-|
A-33333333----|------------------------------------------------8-7-6-5-|
E-------------|------------------------------------------------6-5-4-3-|

Log In to leave a comment

After registration we will return you to the same place
Comments
face-with-monocle
If you wait a bit, some comments may appear here...

Shhh...