Loading...
Red Hot Chili Peppers logo

Police Helicopter Red Hot Chili Peppers

  • 0
  • Share
  • Transposing
    0
  • Font Size
[Verse]

E|--------------------|
B|---6--6-6-6-6-------|
G|---7--7-7-7-7-------|x4
D|---5--5-5-5-5-------|
A|--------------------|
E|----------------3---|

First let the bass Do its thing

[Chorus]

E|---------------------------------------------------|
B|-5/6---X--X---6----X--X----5/6----X-6-X-6----X--X--|
G|-6/7---X--X---7----X--X----6/7----X-7-X-7----X--X--|x4
D|-4/5---X--X---5----X--X----4/5----X-5-X-5----X--X--|
A|---------------------------------------------------|
E|---------------------------------------------------|

Which is basically constant strumming

[Verse]

E|--------------------|
B|---6--6-6-6-6-------|
G|---7--7-7-7-7-------|x4
D|---5--5-5-5-5-------|
A|--------------------|
E|----------------3---|

[Chorus]

E|---------------------------------------------------|
B|-5/6---X--X---6----X--X----5/6----X-6-X-6----X--X--|
G|-6/7---X--X---7----X--X----6/7----X-7-X-7----X--X--|x4
D|-4/5---X--X---5----X--X----4/5----X-5-X-5----X--X--|
A|---------------------------------------------------|
E|---------------------------------------------------|

[Verse]

E|--------------------|
B|---6--6-6-6-6-------|
G|---7--7-7-7-7-------|x4
D|---5--5-5-5-5-------|
A|--------------------|
E|----------------3---|

[Chorus]

E|---------------------------------------------------|
B|-5/6---X--X---6----X--X----5/6----X-6-X-6----X--X--|
G|-6/7---X--X---7----X--X----6/7----X-7-X-7----X--X--|x4
D|-4/5---X--X---5----X--X----4/5----X-5-X-5----X--X--|
A|---------------------------------------------------|
E|---------------------------------------------------|

[Verse]

E|--------------------|
B|---6--6-6-6-6-------|
G|---7--7-7-7-7-------|x4
D|---5--5-5-5-5-------|
A|--------------------|
E|----------------3---|

[Chorus]

E|---------------------------------------------------|
B|-5/6---X--X---6----X--X----5/6----X-6-X-6----X--X--|
G|-6/7---X--X---7----X--X----6/7----X-7-X-7----X--X--|x4
D|-4/5---X--X---5----X--X----4/5----X-5-X-5----X--X--|
A|---------------------------------------------------|
E|---------------------------------------------------|

[Verse]

E|--------------------|
B|---6--6-6-6-6-------|
G|---7--7-7-7-7-------|x4
D|---5--5-5-5-5-------|
A|--------------------|
E|----------------3---|

[Chorus]

E|---------------------------------------------------|
B|-5/6---X--X---6----X--X----5/6----X-6-X-6----X--X--|
G|-6/7---X--X---7----X--X----6/7----X-7-X-7----X--X--|x4
D|-4/5---X--X---5----X--X----4/5----X-5-X-5----X--X--|
A|---------------------------------------------------|
E|---------------------------------------------------|

[Outro]

E|--------------------|
B|---6--6-6-6-6-------|
G|---7--7-7-7-7-------|
D|---5--5-5-5-5-------|
A|--------------------|
E|----------------3---|

***********************************
| / Slide up
| X Dead note
***********************************

Log In to leave a comment

After registration we will return you to the same place
Comments
face-with-monocle
If you wait a bit, some comments may appear here...

Shhh...