Loading...
Red Hot Chili Peppers logo

Blackeyed Blonde Red Hot Chili Peppers

  • 0
  • Share
  • Transposing
    0
  • Font Size
G|---x---x---x---x-----------------|
D|-------------------x---x---x---x-|
A|-x---x---x---x-------------------|
E|-----------------x---x---x---x---|

(FLEA has tone maxed at this point)

Intro:
G|----------------------------------------------5-5------------|
D|-------------------------------------------------------------|
A|---3-5--3-5-------3-5--3-5-------3-5--3-5-----------3-5--3-5-|
E|-------------------------------------------------------------|

(Ok now depending on how many pickups u have just drop the tone
On all of them)

Verse:
Pumpin' the... ...of New Orleans, She's the... ...street dream
G|-------x-------x-----5--7--5-------x---------x-----5----5--4-|
D|-------------------------------------------------------------|
A|-3h5-x---3h5-x----0hx--x-----3h5-x----3h5--x----0hx---x------|
E|-------------------------------------------------------------|

She's just... ...and bones, You better leave her alone
G|--------x---------x------5--7---5----|
D|-------------------------------------|
A|--3h5-x----3h5--x-----0hx--x-------5-|
E|-------------------------------------|

G|-------x-------x----5--7---5-------x---------x-----5----7--5-|
D|-------------------------------------------------------------|
A|-3h5-x---3h5-x---0hx--x------3h5-x----3h5--x----0hx---x------|
E|-------------------------------------------------------------|

G|-------x-------x----5--7---5-------x---------x-----5----7--5-|
D|-------------------------------------------------------------|
A|-3h5-x---3h5-x---0hx--x------3h5-x----3h5--x----0hx---x------|
E|-------------------------------------------------------------|

Leroy Brown thought he was bad too, 'Till she left....old bayou

G|-------x-------x----5--7---5-------x---------x-----5----7--5-|
D|-------------------------------------------------------------|
A|-3h5-x---3h5-x---0hx--x------3h5-x----3h5--x----0hx---x------|
E|-------------------------------------------------------------|

She's the... ...a bomb, She's the... ...Get down !
G|--------x---------x------5--7---5-------x---------x-----5----|
D|-------------------------------------------------------------|
A|--3h5-x----3h5--x-----0hx--x------3h5-x----3h5--x----0hx---x-|
E|-------------------------------------------------------------|

Chorus:

(ahhhhhh the good ole chorus...to match the funky-ass guitar
A envelope filter goes well in here)

G|------------------------------------------------------------|
D|-------5h7--------------------5h7---5--5----5h7-------------|
A|-------------7-5--------------------------7---------7-5-----|
E|--3h5------------8-5-----3h5----------------------------8-5-|

G|-------------------------------------------------------------|
D|------5h7-----------------5h7---5--5----5h7------------------|
A|------------7-5-----------------------7------7-5-------------|
E|-3h5------------8-5--3h5-------------------------8-5----5--7-|

Okay then
That should fix u up good
Now repeeat the verse
There is not much variation
After that do the chorus without the last 2 notes

Interlude:

G|-------x-------x----5--7---5-------x---------x-----5----7--5-|
D|-------------------------------------------------------------|
A|-3h5-x---3h5-x---0hx--x------3h5-x----3h5--x----0hx---x------|
E|-------------------------------------------------------------|

G|-------x-------x----5--7---5-------x---------x-----5----7--5-|
D|-------------------------------------------------------------|
A|-3h5-x---3h5-x---0hx--x------3h5-x----3h5--x----0hx---x------|
E|-------------------------------------------------------------|

G|-------x-------x----5--7---5-------x---------x-----5----7--5-|
D|-------------------------------------------------------------|
A|-3h5-x---3h5-x---0hx--x------3h5-x----3h5--x----0hx---x------|
E|-------------------------------------------------------------|

G|-------x--------x------5--7---5------------------------------|
D|-------------------------------------------------------------|
A|-3h5-x---3h5--x-----0hx--x-------------5---5---5---5---5---5-|
E|-------------------------------------------------------------|

Guitar Solo:
G|-------x-------x----5--7---5-------x---------x-----5----5--4-|
D|-------------------------------------------------------------|
A|-3h5-x---3h5-x---0hx--x------3h5-x----3h5--x----0hx---x------|
E|-------------------------------------------------------------|

G|-------x-------x----5--7---5-------x---------x-----5----5--4-|
D|-------------------------------------------------------------|
A|-3h5-x---3h5-x---0hx--x------3h5-x----3h5--x----0hx---x------|
E|-------------------------------------------------------------|

G|-------x-------x----5--7---5-------x---------x-----5----5--4-|
D|-------------------------------------------------------------|
A|-3h5-x---3h5-x---0hx--x------3h5-x----3h5--x----0hx---x------|
E|-------------------------------------------------------------|

G|-------x-------x----5--7---5-------x---------x-----5----5--4-|
D|-------------------------------------------------------------|
A|-3h5-x---3h5-x---0hx--x------3h5-x----3h5--x----0hx---x------|
E|-------------------------------------------------------------|

Now play this second chorus

G|-----------------------------------------------------------|
D|------8h10-----------------8h10--8-8----8-10---------------|
A|------------10-8---------------------10--------10--8-------|
E -6h8------------11-8--6h8----------------------------11--8-|

G|-----------------------------------------------------------|
D|------8h10-----------------8h10--8-8----8-10---------------|
A|------------10-8---------------------10--------10--8-------|
E -6h8------------11-8--6h8----------------------------11--8-|

Now play the verse

And that should go through
And then there will be an extra last line:
G|--------x---------x---------x---------x---------------------|
D|------------------------------------------------------------|
A|-3h5--x----3h5--x----3h5--x----3h5--x----------3-5------3-5-|
E|------------------------------------------------------------|

Log In to leave a comment

After registration we will return you to the same place
Comments
face-with-monocle
If you wait a bit, some comments may appear here...

Shhh...