Loading...
Rasmus logo

Everyday Rasmus

  • 0
  • Share
  • Transposing
    0
  • Font Size
Intro:

--Part 1--
E|-------------------------------------------||
B|-------------------------------------------|| Play this bar 3x
G|--------------6---6-----7---6--------------||
D|----7---7---7---7-----7---7-----7--6--7----||
A|--9---9------------------------------------||
E|-------------------------------------------||

E|-------------------------------------------||
B|-------------------------------------------|| Play this on the last Bar
G|--------------6---6---7--------------------||
D|----7---7---7---7--------------------------||
A|--9---9------------------------------------||
E|-------------------------------------------||

--Part 2--
E|--------------------------------------------------------||
B|--------------------------------------------------------||
G|-11--13--14--13--11--13--11---9---6---7---6---7--6\\7-4--||
D|--------------------------------------------------------||
A|--9--11--12--11---9--11--9----7---4---5---4---5--4---2--||
E|--------------------------------------------------------||

E|--------------------------------------------------------||
B|--------------------------------------------------------||
G|-11--13--14--13--11--13--11---9---6---7---6---7\\6-------||
D|--------------------------------------------------------||
A|--9--11--12--11---9--11--9----7---4---5---4---5\\4-------||
E|--------------------------------------------------------||

Verse: same as Part 1 (2x)

Chorus: Same as part 2

Bridge:

E|------------------------||
B|------------------------||
G|---12---14----6----7----||
D|------------------------||
A|---10---12----4----5----||
E|------------------------||

Log In to leave a comment

After registration we will return you to the same place
Comments
face-with-monocle
If you wait a bit, some comments may appear here...

Shhh...