Loading...
Ramones logo

Strength To Endure Ramones

  • 0
  • Share
  • Transposing
    0
  • Font Size
Artist: Ramones
Title: Strength to Endure
Album: Mondo Bizarro
Tabber: [email protected]

Here's a quickly done tab of strength to endure...
If its wrong please let me know in the correction thing and not in an email please.

Intro:
E|---------------------------------------------------------------------------|
B|---------------------------------------------------------------------------|
G|---------------------------------------------------------------------------|
D|----5---5---9---9----------------------------------------------------------|
A|----3---3---7---7--7---7---5---7---5---7---2-------------------------------|
E|-------------------5---5---3---5---3---5---0-------------------------------|

Verses:
E|---------------------------------------------------------------------------|
B|---------------------------------------------------------------------------|
G|---------------------------------------------------------------------------|
D|----5---5---5---5---9---9---9---9------------------------------------------|
A|----3---3---3---3---7---7---7---7---7---7---5---7---5---7---2--------------|
E|------------------------------------5---5---3---5---3---5---0--------------|
(Palm Muted)

Chorus (I think this might be wrong, corrections are appreciated)
E|---------------------------------------------------------------------------|
B|---------------------------------------------------------------------------|
G|--7-7-7-7----------------------------7-7-7-7-----------------5-5-5-5-------|
D|--7-7-7-7-7-7-7-7-5-5-5-5-7-7-7-7----7-7-7-7-7-7-7-7-5-5-5-5-5-5-5-5-------|
A|--5-5-5-5-7-7-7-7-5-5-5-5-7-7-7-7----5-5-5-5-7-7-7-7-5-5-5-5-3-3-3-3-------|
E|----------5-5-5-5-3-3-3-3-5-5-5-5------------5-5-5-5-3-3-3-3---------------|

Solo:
This is the intro played 4 times, but durning the second time it plays:

B|-2-2-0-2--

Over the last notes of it and on the last time it plays:

E|---------------------------------------------------------------------------|
B|-4^-4^-4^p3p1---1-1-1------------------------------------------------------|
G|--------------2-------2----------------------------------------------------|
D|---------------------------------------------------------------------------|
A|---------------------------------------------------------------------------|
E|---------------------------------------------------------------------------|

And thats all

Log In to leave a comment

After registration we will return you to the same place
Comments
face-with-monocle
If you wait a bit, some comments may appear here...

Shhh...