Loading...
Rammstein logo

Rammstein Rammstein

  • 0
  • Share
  • Transposing
    0
  • Font Size
Intro & Verse: x4
4|-----4h5-----4h5-----4h5--5h4-|
5|-----2h3-----2h3-----2h3--3h2-|
6|-0-0-----0-0-----0-0----------|

Rammstein
Ein Mensch brennt
Rammstein
Fleischgeruch liegt in der Luft
Rammstein
Ein Kind stirbt
Rammstein
Die Sonne scheint

Interlude:
4|-----4h5-----4h5-----4h5--5h4-|
5|-----2h3-----2h3-----2h3--3h2-|
6|-0-0-----0-0-----0-0----------|

4|-----------------|
5|-5-2---------5-2-| x2
6|-3-0--000000-3-0-|

Verse: x4
4|-----4h5-----4h5-----4h5--5h4-|
5|-----2h3-----2h3-----2h3--3h2-|
6|-0-0-----0-0-----0-0----------|

Rammstein
Ein Flammenmeer
Rammstein
Blut gerinnt auf dem Asphalt
Rammstein
Mutter schreien
Rammstein
Die Sonne scheint

Rammstein
Ein Massengrab
Rammstein
Kein Entrinnen
Rammstein
Kein Vogel singt mehr
Rammstein
Die Sonne scheint

Solo:
1|-7-9-10-9-7-9-10-9-7-9-10-9-7-9-7-9-|-7-9-10-9-7-9-10-9-7-9-10-9-7-9-7-9-|

1|-7-9-10-9-7-9-10-9-7-9-10-9-7-9-7-9-|-7-9-10-9-7-9-10-9-2-3-5-3-2-2h3-|
Rammstein

Log In to leave a comment

After registration we will return you to the same place
Comments
face-with-monocle
If you wait a bit, some comments may appear here...

Shhh...

Most Popular
You Might Like