Raging Speedhorn logo

Necrophiliac Glue Sniffer Raging Speedhorn

  • 0
  • Share
  • Transposing
    0
  • Font Size
    15
Raging Speedhorn – Necrophiliac Glue Sniffer
Raging Speedhorn,Necrophiliac Glue Sniffer.
Tabbed by mark kerry,roger.kerry@which.net.

Band: Raging Speedhorn
Song: Necrophiliac Glue Sniffer
Album: Raging Speedhorn
Tuning: low to high - c# g# c# f# a# d#
Transcribed by Mark Kerry
E-mail: roger.kerry@which.net

Key

/ = slide up
B = bend
R = release

Riff 1 main riff (guitar 1&2)
|----------------------------------------------|
|----------------------------------------------|
|-----------5-5--5-5--5------------------------|
|-----------5-5--5-5--5------------------------|
|---0--0--0-3-3--3-3--3--0--0--0--4/5--3-------|
|---0--0--0--------------0--0--0--4/5--3-------|

Riff 2 chorus (guitar 1&2)
|----------------------------------------------|
|----------------------------------------------|
|----------------------------------------------|
|----------------------------------------------|
|---5/6-6-6--6--5/6-6-6--6--5/6-6-6--6--3--2---|
|---5/6-6-6--6--5/6-6-6--6--5/6-6-6--6--3--2---|

Riff 3 bridge (guitar 1&2)
|----------------------------------------------|
|----------------------------------------------|
|----------------------------------------------|
|----------------------------------------3-----|
|--------------------------------5-5--5----5---|
|---0--3br0-0--5--6---0--3br0-0----------------|
:: Ultimate Guitar Archive ::
Http://www.ultimate-guitar.com

Log In to leave a comment

After registration we will return you to the same place
Comments
face-with-monocle
If you wait a bit, some comments may appear here...

Shhh...