Raging Speedhorn logo

Knives And Faces Raging Speedhorn

  • 0
  • Share
  • Font Size
Raging Speedhorn – Knives And Faces
Raging Speedhorn,knives and faces.
Tabbed by mark kerry,[email protected]

Band: Raging Speedhorn
Song: Knives and Faces
Album: Raging Speedhorn
Tuning: low to high - c# g# c# f# a# d#
Transcribed by Mark Kerry
E-mail [email protected]

Riff1 intro (guitar 1)
|------------------------------------------------|
|------------------------------------------------|
|------------------------------------------------|
|------------------------------------------------|
|------------------------------------------------|
|--12-10-0-0-0-0-10-0-0-0-0-10-0-0-0-0-10-0-0----|

Riff2 verse (guitar 1&2)
|------------------------------------------------|
|------------------------------------------------|
|------------------------------------------------|
|------------------------------------------------|
|--10--0-0---0-10--0-0---0-10--0-0---0-10--0---0-|
|--10--0-0---0-10--0-0---0-10--0-0---0-10--0---0-|

Riff3 chorus (guitar 1&2) fill1
|---------------------------------------| |-----|
|---------------------------------------| |-----|
|--6---6--6-----------------------------| |-----|
|--6---6--6-----------------------------| |-----|
|--4---4--4---5--5-5--4--4-4--3-4-3-----| |--0--|
|-------------5--5-5--4--4-4--3-4-3-----| |--0--|

Riff4 bridge (guitar 1)
|------------------------------------------------|
|------------------------------------------------|
|------------------------------------------------|
|------------------------------------------------|
|------------------------------------------------|
|--0--7--8--0--3--6--0--6--5--0--3--6------------|

Riff5 bridge (guitar 1&2)
|------------------------------------------------|
|------------------------------------------------|
|------------------------------------------------|
|------------------------------------------------|
|--0--7--8--0--3--6--0--6--5--0--3--6------------|
|--0--7--8--0--3--6--0--6--5--0--3--6------------|

Riff1x4
Riff2x12
Riff3x4
Fill1x1
Riff2x12
Riff3x8
Fill1x1
Riff4x2
Riff5x16
Riff5(1/2 the speed)x4
Fill1x1
:: Ultimate Guitar Archive ::
Http://www.ultimate-guitar.com

Log In to leave a comment

After registration we will return you to the same place
Comments
face-with-monocle
If you wait a bit, some comments may appear here...

Shhh...