Loading...
  • 0
  • Share
  • Transposing
    0
  • Font Size
Rage Against The Machine
The Narrows (aka Released From Reason)

By: B Rogers ([email protected])

The only recording I have of this is on The Dirty Dozen.
If you listen to the beginning of the track, you can tell
That it has been edited. So, after tabbing numerous Rage
Songs, I tabbed out the beginning part in the style that
They usually play their songs. If you have heard a recording
Of this song that is not edited, and you feel I have tabbed
The beginning of this song wrong, please let me know.

w w w w riff a
G---------------|
D---------------|
A---------------|
E---0--0--0--0--|

s s e s s q e q riff b
G---------r--------r--------|
D---------e--------e--------|
A---7--5--s--------s--------|
E---------t--5--3--t--0--0--|

e e s s s s e Q riff c1
G---------------r-----r-----|
D---------9--7--e--9--e-----|
A---------------s-----s-----|
E---7--7--------t-----t--5--|

e e s s s s s s s e s e riff c2
G---------------r-----r-----r-----------|
D---------9--7--e--9--e-----e--9--7-----|
A---------------s-----s-----s--------9--|
E---7--7--------t-----t--5--t-----------|

Riff c1 x 3 + riff c2 x 1 = riff c

w w w e e e e e e q riff d
G---------9-----8-----7--------|
D------------------------------|
A------------7-----6-----5-----|
E---777------------------3--|

e e e e h e e e e s E e e riff e
G---------------r--------------r-----------|
D---------------e--------------e-----------|
A---------7-----s--------7-----s--------5--|
E---0--0-----0--t--0--0-----0--t--6--7-----|

w w w B q w w w e e e e e e q riff f
G--------------------9-----8-----7--------|
D-----------------------------------------|
A-----------------------7-----6-----5-----|
E---77773--777------------------3--|

e e B h e q e riff g
G-----r--r--r--r--------|
D-----e--e--e--e--8--9--|
A-----s--s--s--s--------|
E--7--t--t--t--t--------|

e e e e s s e s s e e e e e s E e e riff h
G---------------r-------r-------------------r-----------|
D---------------e--5p4--e--5p4--------------e-----------|
A---------7-----s--5p4--s--5p4--------7-----s--------5--|
E---0--0-----0--t-------t-------0--0-----0--t--6--7-----|

E E E E e e w riff i
G------------------------|
D------------------------|
A---7--6--5--4--3--2-----|
E---------------------0--|

Оrdеr-О-Riffs
Riff a x 1
Riff b x 8
Riff c x 4
Riff d x 1
Riff e x 4
Riff c x 3
Riff f x 1
Riff e x 4
Rest 4 measures
Riff b x 4
Riff g x 4
Riff h x 8
Riff i x 1

----------
----5p8--- Pulloff
----------
----58--- Slide Down
----------

Rhythm:
w = whole note W = dotted whole
h = half note B = dotted half
q = quarter note Q = dotted quarter
e = eighth note E = dotted eighth
s = sixteenth note S = dotted sixteenth
t = 32nd note T = dotted 32nd
x = 64th note X = dotted 64th
^ = triplet

Log In to leave a comment

After registration we will return you to the same place
Comments
face-with-monocle
If you wait a bit, some comments may appear here...

Shhh...