Queensryche logo

Neue Regel Queensryche

  • 2
  • Share
  • Font Size
    15
Queensryche – Neue Regel
#----------------------------------PLEASE NOTE---------------------------------#
#This file is the author's own work and represents their interpretation of the #
#song. You may only use this file for private study, scholarship, or research. #
#------------------------------------------------------------------------------##
                            Neue Regel - Queensryche
                    Transcribed on 4/2/95 by Curtis Pastor
                           clpastor@eesun2.tamu.edu
                                Standard tuning

    Acoustic
||------0-----------0----------------0--------0---------||---------------------
||-/-5--------5-----------5---/5--------5--------0------||---------------------
||*-------------------------------------------------9--*||---------------------
||*----------------------------------------8-----------*||---------------------
||------------------------------------------------------||---------------------
||------------------------------------------------------||---------------------

------------------------|--------------0--------------|------------------------
---------1-----------0--|--------------------0--------|------------------------
------0-----------0-----|--------2-----------------2--|------------------------
---2-----------0--------|-----2-----------------------|------------------------
3-----------2-----------|--0--------------------------|------------------------
------------------------|-----------------------------|------------------------

---------------------------||--------------------------------------------------
---------1-----------0-----||--------------------------------------------------
------0-----------0--------||--------------------------------------------------
---2-----------0--------2--||--------------------------------------------------
3-----------2-----------2--||--------------------------------------------------
------------------------0--||--------------------------------------------------

------------------------------------------------|------------------------------
------------------------------------------------|------------------------------
---------5-----------4-----------2-----4--2-----|------------------------------
---2--5--------2--5--------2--5--------2--0-----|------------------------------
0-----------0-----------0-----------------------|------------------------------
------------------------------------------------|------------------------------

------------------------------------------|------------------------------------
------------------------------------------|------------------------------------
---------5--------4-----------------------|------------------------------------
---2--5--------5-----------5--4-----------|------------------------------------
0-----------0--------0--------------------|------------------------------------
------------------------------------------|------------------------------------

------------------------------------------------|------------------------------
------------------------------------------------|------------------------------
---------5-----------4-----------2-----4--2-----|------------------------------
---2--5--------2--5--------2--5--------2--0-----|------------------------------
0-----------0-----------0-----------------------|------------------------------
------------------------------------------------|------------------------------

---------------------------------------------------------------|---------------
---------------------------------------------------------------|---------------
---------5--------4--5-----------4-----------2-----------------|---------------
---2--5--------5-----5-----------4-----------2-----------------|---------------
0-----------0--------3-----------2-----------0-----------------|---------------
---------------------------------------------------------------|---------------

------------------------------------------------------||-----------------------
------------------------------------------------------||-----------------------
5--------------4--------------------------------------||-----------------------
5--------------4-----------------2--------------------||-----------------------
3--------------2-----------------2--------------------||-----------------------
---------------------------------0--------------------||-----------------------

Fill
--------------------------------------------------||-----------------||--------
-8-----------8--8--7--------8--------10--------7--||-----------------||--------
-5-----------5--5--5--------7--------7---------7--||-----------------||--------
--------------------------------------------------||-----------------||--------
--------------------------------------------------||-----------------||--------
--------------------------------------------------||--0--------------||--------

----------------------------------|----------------------------------|---------
----------------------------------|----------------------------------|---------
---4--------4--------4---7-----7--|--2-----2--------2-----2-----2h4--|---------
---2--------4-----x--5--/7--x--7--|--0-----2-----x--4-----4--x--4----|---------
----------------------------------|----------------------------------|---------
0---------------------------------|----------------------------------|---------

-----------------------------------------------------------------------||------
------------------------0--------0-------------------------------------||------
---4-----------------4--------4----------------5-----------5--------4--||------
---2--------2--4--5--------4--------2p0--------5-----------5--------5--||------
---------2-------------------------------3--x--3--------x--3-----x--3--||------
0----------------------------------------------------------------------||------

------------------------|-----------------------|------------------------------
------------------------|-----------8--7--------|------------------------------
9--9--------------------|--7--------7--7--------|--5---------------------------
9--9-----10p9--7--------|--7-----x--7--7--------|--5---------------------------
7--7--------------------|--5--x-----5--5--------|--3---------------------------
------------------------|-----------------------|------------------------------

     Outro           Harm.
||---------------------------------------------------||------------------------
||---------------------------------------------------||------------------------
||*-------------------5--------------------2--------*||------------------------
||*----------------------------------------0--------*||------------------------
||----------------2----------------------------------||------------------------
||----0--0--0--0--0------0--0--0--------x------------||------------------------

===============================================================================
==                           TABLATURE EXPLANATION                           ==
===============================================================================

----------                            ----------
----5h8--- Hammeron                   ----(8)--- Ghost Note
----------                            ----------
----5p8--- Pulloff                    ----------

----------                            ----------
----5/8--- Slide Up                   -----x---- Dead Note
----------                            ----------
----58--- Slide Down                 ----------

----------                            ||------|| Repeat Start & End
----5~~~-- Vibrato                    ||*----*||
----------                            ||*----*||
----------                            ||------||

Log In to leave a comment

After registration we will return you to the same place
Comments
face-with-monocle
If you wait a bit, some comments may appear here...

Shhh...