Loading...
Пурген logo

Работэйшн-полный деградэйшн Пурген

  • 0
  • Share
  • Transposing
    0
  • Font Size
Вступление(послушать песню).

(на басу или акустике),(а вот это на электрогитаре.)
1------------------ 1---------------------------------
2------------------ 2---------------------------------
3------------------х1 3--------------------------------- х4
4------------------ 4--7-7-7-7-5-5-5-5-4-4-5-5-4-4-5-5
5------------------ 5--7-7-7-7-5-5-5-5-4-4-5-5-4-4-5-5
6-0-000-000-000-000 6--5-5-5-5-3-3-3-3-2-2-3-3-2-2-3-3

Припев:
1---------------------------------- |
2---------------------------------- |
3---------------------------------- |
4--7-7-7-7-5-5-5-5-4-4-5-5-4-4-5-5- |
5--7-7-7-7-5-5-5-5-4-4-5-5-4-4-5-5- |
6--5-5-5-5-3-3-3-3-2-2-3-3-2-2-3-3- |
Раа.....боо.....тэйшн..... |Х 2
1---------------------------------- |
2---------------------------------- |
3---------------------------------- |
4--7-7-7-7-5-5-5-5-4-4-5-5-4-4-5-5--- |
5--7-7-7-7-5-5-5-5-4-4-5-5-4-4-5-5--- |
6--5-5-5-5-3-3-3-3-2-2-3-3-2-2-3-3--- |
Полный дегра...дэйшн

А теперь играется очень быстро(как Пурген)
На четвертой струне --000000000-7-000000000-7-00000000-7-0000000000-10-9-8-7--- х4 (переход после припевов).

Основная часть.
1-------------------------------------
2-------------------------------------
3-----------------------------5-5-3-3-
4-7-7-7-7-7-7-7-7-7-7-7-5-5-5-5-5-3-3-
5-7-7-7-7-7-7-7-7-7-7-7-5-5-5-3-3-1-1-
6-5-5-5-5-5-5-5-5-5-5-5-3-3-3---------
И мне не снятся больше сны...оооооооо!
Про то как в городе одни..оооооооо!
И это все из-за того..ооооооо!
Что на работу я пошел.....оооооо!

Припев(х2).

И мысли из меня ушли.....оооооо!
Остались те,что не нужны...ооооо!
И вся работа-это бред......ооооо!
И крыша едет-силы нет!.....ооооо!

Припев(х2).

А здесь немного по-другому( на 4 струне(2раза),
На 3 струне(2 раза),на 4 струне(2 раза).

Зачем работать целый день...оооооо!
Когда нет смысла жить теперь...ооооо!
И ставить деньги выше всех.....оооооо!
Ради тупых и злых потех....оооооо!

Припев(2 раза).

Log In to leave a comment

After registration we will return you to the same place
Comments
face-with-monocle
If you wait a bit, some comments may appear here...

Shhh...