• 1
  • Share
  • Transposing
    0
  • Font Size
Project 86 – P S
----------------------------------------------------------------------
P.S. - Project 86
----------------------------------------------------------------------

Dropped D tuning

Riff 1:
E|--------------------------------------------------------------------
B|--------------------------------------------------------------------
G|-8887775h77777---8-----8-----8-----8--------------------------------
D|-0000000000000-----0-----0-----0-----0------------------------------
A|---------------------0-----0-----0-----0----------------------------
D|---------------0----------------------------------------------------

Lead in to riff 2:
E|--------------------------------------------------------------------
B|--------------------------------------------------------------------
G|-77777777-----------------------------------------------------------
D|--------------(gradually strum harder)------------------------------
A|-55555555-----------------------------------------------------------
D|--------------------------------------------------------------------

Riff 2:
E|--------------------------------------------------------------------
B|--------------------------------------------------------------------
G|----------------------------------777------777------777-------------
D|-111-000-10/12-12-12-12-12-0------666--00--666--00--666-------------
A|-111-000-10/12-12-12-12-12-0------555--00--555--00--555-------------
D|-111-000-10/12-12-12-12-12-0-----------00-------00------------------
p.m. p.m.

Variation on riff 1:
E|--------------------------------------------------------------------
B|--------------------------------------------------------------------
G|-8887775h78888----101010555888778877--8887775h78888---8--8--8--8----
D|-0000000000000-----0-0-0000000000000--0000000000000----0--0--0--0---
A|--------------------------------------------------------0--0--0--0--
D|---------------0------------------------------------0---------------

Riff 3:
E|--------------------------------------------------------------------
B|-------------------------|these are octaves|------------------------
G|-------------------------13-13-13---13-13-13----on the last---------
D|-0----------|-0----------------------------------one dont-----------
A|-0-let ring-|-0-let ring-11-11-11---11-11-11----strum the-----------
D|-0----------|-0----------------------------------octaves------------

Riff 4:
E|--------------------------------------------------------------------
B|--------------------------------------------------------------------
G|-777----------------------------------------------------------------
D|-----0--repeat--end with open D and let ring------------------------
A|-555-0--------------------------------------------------------------
D|-----0--------------------------------------------------------------

thats pretty much the whole song, listen and put it all together
======================================================================

Log In to leave a comment

After registration we will return you to the same place
Comments
face-with-monocle
If you wait a bit, some comments may appear here...

Shhh...

Most Popular
You Might Like