Powerman 5000 logo

The Son Of X-51 Powerman 5000

  • 2
  • Share
  • Font Size
    15
Powerman 5000 – The Son Of X-51
Powerman5000,  Son Of X-51
Sarah,  BusfaceIM@aol.com
Song: The Song of X-51
By: Powerman5000
Album: Tonight The Stars Revolt
Tabbed By: Sarah S.  (BusfaceIM@aol.com)
Date: 10-16-99

This song is soooooo easy to play.  Just listen to the CD to get the timing.  Turn the on the distortion pedal for this song.

Tuning: Standard

Main Riff
E]--------------------------------------------
B]--------------------------------------------
G]----------------------------------4-5-6-7---
D]---0-2-3-4--0-2-3-4--0-2-3-4--0-2-4-5-6-7---
A]---0-2-3-4--0-2-3-4--0-2-3-4--0-2-2-3-4-5---
E]---0-0-1-2--0-0-1-2--0-0-1-2--0-0-----------

Riff 2:
E]---------                               e]---------------
B]---------   at 1:47 play this version   B]---------------
G]---------   of Riff 2.                  G]---------------
D]---0-2---                               D]---0-2-xxxx----
A]---0-2---                               A]---0-2-xxxx----
E]---0-0---                               E]---0-0-xxxx----

Verse:
E]-------------------
B]-------------------
G]-------------------
D]-------------------
A]------------4--4---
E]---0-0-0--0--0-----

Structure:
Main Riff: (0:14)
Verse: (0:28)
Main Riff: (0:49)
Verse: (1:04)
Riff 2:(1:18)
Verse: (1:19)
Riff 2:(1:25)
Verse: (1:26)
Main Riff: (1:32)
Riff 2: (1:47) *with the x's.*
Main Riff: (2:08)
Riff 2: (2:38)

X = dead note.

Log In to leave a comment

After registration we will return you to the same place
Comments
face-with-monocle
If you wait a bit, some comments may appear here...

Shhh...