• 2
  • Share
  • Transposing
    0
  • Font Size
    15
ПОСТная херня – ЕГЭ
[Intro]
  E  D    C  A  B
E|-----------------|
B|-----------------| 8x
G|-----------------|
D|-----------------| main riff
A|-7-7-5-5---------|
E|---------8-5-7---|

[Verse]
E5
Мама, не хочу готовиться к егэ

[Instrumental]
E D C A B}2x

E5
Как говорил мой дедушка егэ- это угэ

[Instrumental]
E D C A B}2x

Em
Школа - тюрьма, кабала и уравниловка

[Instrumental]
E D C A B}2x

Em
Мама, я умнее учителей дебилов

[Instrumental]
E D C A B}2x

[Chorus]
  D5        C5        E5        B5
E|-----------------------------------------|
B|-----------------------------------------|
G|-----------------------------------------| playing in all choruses
D|-----7---7-----5---5-----9---9-----4---4-|
A|-5-5---5---3-3---3---7-7---7---2-2---2---|
E|-----------------------------------------|

D5                  C5
Мама, я не буду заниматься с репетитором
  E5            B5
И если и учиться, то учиться только в Питере
D5                   C5
Все что светит мне здесь это кулинарный техникум
E5             B5
Мама, твой сын вырос мизантропом и скептиком

[Verse]
E5
Все мои одноклассники - быдло и сброд

[Instrumental]
E D C A B}2x

E5
Что-бы я ни говорил, меня никто не поймет

[Instrumental]
E D C A B}2x

E5
Моя учеба в школе не дает реальных знаний

[Instrumental]
E D C A B}2x

E5
Вам так нравится ЕГЭ? Сдавайте его сами!

[Instrumental]
E D C A B}2x

[Chorus]
D5                  C5
Мама, я не буду заниматься с репетитором
  E5            B5
И если и учиться, то учиться только в Питере
D5                   C5
Все что светит мне здесь это кулинарный техникум
E5             B5
Мама, твой сын вырос мизантропом и скептиком

[Outro]
E|---------------|
B|---------------|
G|-9-9-7-7-------|
D|--------10-7-9-|
A|---------------|
E|---------------|

Log In to leave a comment

After registration we will return you to the same place
Comments
face-with-monocle
If you wait a bit, some comments may appear here...

Shhh...